  0
SECTION
  2
HEADER
  9
$ACADVER
  1
AC1014
  9
$ACADMAINTVER
 70
     9
  9
$DWGCODEPAGE
  3
ANSI_1250
  9
$INSBASE
 10
0.0
 20
0.0
 30
0.0
  9
$EXTMIN
 10
-1030.0
 20
1130.0
 30
0.0
  9
$EXTMAX
 10
4315.0
 20
3950.0
 30
2750.0
  9
$LIMMIN
 10
0.0
 20
0.0
  9
$LIMMAX
 10
12.0
 20
9.0
  9
$ORTHOMODE
 70
     0
  9
$REGENMODE
 70
     1
  9
$FILLMODE
 70
     1
  9
$QTEXTMODE
 70
     0
  9
$MIRRTEXT
 70
     1
  9
$DRAGMODE
 70
     2
  9
$LTSCALE
 40
1.0
  9
$OSMODE
 70
    37
  9
$ATTMODE
 70
     1
  9
$TEXTSIZE
 40
0.2
  9
$TRACEWID
 40
0.05
  9
$TEXTSTYLE
  7
STANDARD
  9
$CLAYER
  8
BODEN
  9
$CELTYPE
  6
BYLAYER
  9
$CECOLOR
 62
   256
  9
$CELTSCALE
 40
1.0
  9
$DELOBJ
 70
     1
  9
$DISPSILH
 70
     0
  9
$DIMSCALE
 40
1.0
  9
$DIMASZ
 40
0.2
  9
$DIMEXO
 40
0.05
  9
$DIMDLI
 40
0.38
  9
$DIMRND
 40
0.0
  9
$DIMDLE
 40
0.0
  9
$DIMEXE
 40
0.2
  9
$DIMTP
 40
0.0
  9
$DIMTM
 40
0.0
  9
$DIMTXT
 40
0.2
  9
$DIMCEN
 40
0.09
  9
$DIMTSZ
 40
0.0
  9
$DIMTOL
 70
     0
  9
$DIMLIM
 70
     0
  9
$DIMTIH
 70
     0
  9
$DIMTOH
 70
     0
  9
$DIMSE1
 70
     0
  9
$DIMSE2
 70
     0
  9
$DIMTAD
 70
     0
  9
$DIMZIN
 70
     0
  9
$DIMBLK
  1
VDDIM_DEFAULT
  9
$DIMASO
 70
     1
  9
$DIMSHO
 70
     1
  9
$DIMPOST
  1

  9
$DIMAPOST
  1

  9
$DIMALT
 70
     0
  9
$DIMALTD
 70
     2
  9
$DIMALTF
 40
25.4
  9
$DIMLFAC
 40
1.0
  9
$DIMTOFL
 70
     1
  9
$DIMTVP
 40
0.0
  9
$DIMTIX
 70
     1
  9
$DIMSOXD
 70
     0
  9
$DIMSAH
 70
     0
  9
$DIMBLK1
  1

  9
$DIMBLK2
  1

  9
$DIMSTYLE
  2
STANDARD
  9
$DIMCLRD
 70
     0
  9
$DIMCLRE
 70
   256
  9
$DIMCLRT
 70
   256
  9
$DIMTFAC
 40
1.0
  9
$DIMGAP
 40
0.09
  9
$DIMJUST
 70
     0
  9
$DIMSD1
 70
     0
  9
$DIMSD2
 70
     0
  9
$DIMTOLJ
 70
     1
  9
$DIMTZIN
 70
     0
  9
$DIMALTZ
 70
     0
  9
$DIMALTTZ
 70
     0
  9
$DIMFIT
 70
     3
  9
$DIMUPT
 70
     1
  9
$DIMUNIT
 70
     2
  9
$DIMDEC
 70
     4
  9
$DIMTDEC
 70
     4
  9
$DIMALTU
 70
     2
  9
$DIMALTTD
 70
     2
  9
$DIMTXSTY
  7
STANDARD
  9
$DIMAUNIT
 70
     0
  9
$LUNITS
 70
     2
  9
$LUPREC
 70
     4
  9
$SKETCHINC
 40
0.1
  9
$FILLETRAD
 40
0.5
  9
$AUNITS
 70
     0
  9
$AUPREC
 70
     0
  9
$MENU
  1
.
  9
$ELEVATION
 40
0.0
  9
$PELEVATION
 40
0.0
  9
$THICKNESS
 40
0.0
  9
$LIMCHECK
 70
     0
  9
$BLIPMODE
 70
     0
  9
$CHAMFERA
 40
0.5
  9
$CHAMFERB
 40
0.5
  9
$CHAMFERC
 40
1.0
  9
$CHAMFERD
 40
0.0
  9
$SKPOLY
 70
     0
  9
$TDCREATE
 40
2455322.39101125
  9
$TDUPDATE
 40
2455322.432677928
  9
$TDINDWG
 40
0.0000000116
  9
$TDUSRTIMER
 40
0.0000000116
  9
$USRTIMER
 70
     1
  9
$ANGBASE
 50
0.0
  9
$ANGDIR
 70
     0
  9
$PDMODE
 70
     0
  9
$PDSIZE
 40
0.0
  9
$PLINEWID
 40
0.0
  9
$COORDS
 70
     1
  9
$SPLFRAME
 70
     0
  9
$SPLINETYPE
 70
     6
  9
$SPLINESEGS
 70
     8
  9
$ATTDIA
 70
     0
  9
$ATTREQ
 70
     1
  9
$HANDLING
 70
     1
  9
$HANDSEED
  5
364
  9
$SURFTAB1
 70
     6
  9
$SURFTAB2
 70
     6
  9
$SURFTYPE
 70
     6
  9
$SURFU
 70
     6
  9
$SURFV
 70
     6
  9
$UCSNAME
  2

  9
$UCSORG
 10
0.0
 20
0.0
 30
0.0
  9
$UCSXDIR
 10
1.0
 20
0.0
 30
0.0
  9
$UCSYDIR
 10
0.0
 20
1.0
 30
0.0
  9
$PUCSNAME
  2

  9
$PUCSORG
 10
0.0
 20
0.0
 30
0.0
  9
$PUCSXDIR
 10
1.0
 20
0.0
 30
0.0
  9
$PUCSYDIR
 10
0.0
 20
1.0
 30
0.0
  9
$USERI1
 70
     0
  9
$USERI2
 70
     0
  9
$USERI3
 70
     0
  9
$USERI4
 70
     0
  9
$USERI5
 70
     0
  9
$USERR1
 40
0.0
  9
$USERR2
 40
0.0
  9
$USERR3
 40
0.0
  9
$USERR4
 40
0.0
  9
$USERR5
 40
0.0
  9
$WORLDVIEW
 70
     1
  9
$SHADEDGE
 70
     3
  9
$SHADEDIF
 70
    70
  9
$TILEMODE
 70
     1
  9
$MAXACTVP
 70
    64
  9
$PINSBASE
 10
0.0
 20
0.0
 30
0.0
  9
$PLIMCHECK
 70
     0
  9
$PEXTMIN
 10
1.000000000000000E+20
 20
1.000000000000000E+20
 30
1.000000000000000E+20
  9
$PEXTMAX
 10
-1.000000000000000E+20
 20
-1.000000000000000E+20
 30
-1.000000000000000E+20
  9
$PLIMMIN
 10
0.0
 20
0.0
  9
$PLIMMAX
 10
12.0
 20
9.0
  9
$UNITMODE
 70
     0
  9
$VISRETAIN
 70
     1
  9
$PLINEGEN
 70
     0
  9
$PSLTSCALE
 70
     1
  9
$TREEDEPTH
 70
  3020
  9
$PICKSTYLE
 70
     1
  9
$CMLSTYLE
  2
STANDARD
  9
$CMLJUST
 70
     0
  9
$CMLSCALE
 40
1.0
  9
$PROXYGRAPHICS
 70
     1
  9
$MEASUREMENT
 70
     0
  0
ENDSEC
  0
SECTION
  2
CLASSES
  0
CLASS
  1
ACDBDICTIONARYWDFLT
  2
AcDbDictionaryWithDefault
  3
ObjectDBX Classes
 90
        0
280
     0
281
     0
  0
CLASS
  1
XRECORD
  2
AcDbXrecord
  3
AutoCAD 2000
 90
        0
280
     0
281
     0
  0
CLASS
  1
LWPOLYLINE
  2
AcDbPolyline
  3
AutoCAD 2000
 90
        0
280
     0
281
     1
  0
CLASS
  1
HATCH
  2
AcDbHatch
  3
AutoCAD 2000
 90
        0
280
     0
281
     1
  0
CLASS
  1
ACDBPLACEHOLDER
  2
AcDbPlaceHolder
  3
ObjectDBX Classes
 90
        0
280
     0
281
     0
  0
CLASS
  1
LAYOUT
  2
AcDbLayout
  3
ObjectDBX Classes
 90
        0
280
     0
281
     0
  0
ENDSEC
  0
SECTION
  2
TABLES
  0
TABLE
  2
VPORT
  5
37
330
0
100
AcDbSymbolTable
 70
     2
  0
VPORT
  5
58
102
{ACAD_XDICTIONARY
360
362
102
}
330
37
100
AcDbSymbolTableRecord
100
AcDbViewportTableRecord
  2
*ACTIVE
 70
     0
 10
0.0
 20
0.0
 11
1.0
 21
1.0
 12
-703.5712472808802
 22
2770.960099909902
 13
0.0
 23
0.0
 14
1.0
 24
1.0
 15
1.0
 25
1.0
 16
-0.5792279653396163
 26
-0.579227965339509
 36
0.5735764363510594
 17
0.0
 27
0.0
 37
0.0
 40
5713.686489110201
 41
0.0031077583254692
 42
50.0
 43
0.0
 44
0.0
 50
0.0
 51
0.0
 71
     0
 72
   100
 73
     1
 74
     3
 75
     0
 76
     0
 77
     0
 78
     0
  0
ENDTAB
  0
TABLE
  2
LTYPE
  5
34
330
0
100
AcDbSymbolTable
 70
    25
  0
LTYPE
  5
43
330
34
100
AcDbSymbolTableRecord
100
AcDbLinetypeTableRecord
  2
BYBLOCK
 70
     0
  3

 72
    65
 73
     0
 40
0.0
  0
LTYPE
  5
44
330
34
100
AcDbSymbolTableRecord
100
AcDbLinetypeTableRecord
  2
BYLAYER
 70
     0
  3

 72
    65
 73
     0
 40
0.0
  0
LTYPE
  5
45
330
34
100
AcDbSymbolTableRecord
100
AcDbLinetypeTableRecord
  2
CONTINUOUS
 70
     0
  3
Solid line
 72
    65
 73
     0
 40
0.0
  0
LTYPE
  5
60
330
34
100
AcDbSymbolTableRecord
100
AcDbLinetypeTableRecord
  2
CENTER
 70
     0
  3
Center ____ _ ____ _ ____ _ ____ _ ____ _ ____
 72
    65
 73
     4
 40
2.0
 49
1.25
 74
     0
 49
-0.25
 74
     0
 49
0.25
 74
     0
 49
-0.25
 74
     0
  0
LTYPE
  5
61
330
34
100
AcDbSymbolTableRecord
100
AcDbLinetypeTableRecord
  2
DASHDOT
 70
     0
  3
Dashdot __ . __ . __ . __ . __ . __ . __ . __
 72
    65
 73
     4
 40
1.0
 49
0.5
 74
     0
 49
-0.25
 74
     0
 49
0.0
 74
     0
 49
-0.25
 74
     0
  0
LTYPE
  5
62
330
34
100
AcDbSymbolTableRecord
100
AcDbLinetypeTableRecord
  2
DASHED
 70
     0
  3
Dashed __ __ __ __ __ __ __ __ __ __ __ __ __ _
 72
    65
 73
     2
 40
0.75
 49
0.5
 74
     0
 49
-0.25
 74
     0
  0
LTYPE
  5
63
330
34
100
AcDbSymbolTableRecord
100
AcDbLinetypeTableRecord
  2
HIDDEN
 70
     0
  3
Hidden __ __ __ __ __ __ __ __ __ __ __ __ __ __
 72
    65
 73
     2
 40
0.375
 49
0.25
 74
     0
 49
-0.125
 74
     0
  0
LTYPE
  5
64
330
34
100
AcDbSymbolTableRecord
100
AcDbLinetypeTableRecord
  2
HIDDEN2
 70
     0
  3
Hidden2 _ _ _ _ _ _ _ _ _ _ _ _ _ _ _ _ _ 
 72
    65
 73
     2
 40
0.1875
 49
0.125
 74
     0
 49
-0.0625
 74
     0
  0
LTYPE
  5
65
330
34
100
AcDbSymbolTableRecord
100
AcDbLinetypeTableRecord
  2
BORDER
 70
     0
  3
Border __ __ . __ __ . __ __ . __ __ . __ __ .
 72
    65
 73
     6
 40
1.75
 49
0.5
 74
     0
 49
-0.25
 74
     0
 49
0.5
 74
     0
 49
-0.25
 74
     0
 49
0.0
 74
     0
 49
-0.25
 74
     0
  0
LTYPE
  5
66
330
34
100
AcDbSymbolTableRecord
100
AcDbLinetypeTableRecord
  2
BORDER2
 70
     0
  3
Border2 __.__.__.__.__.__.__.__.__.__.__.
 72
    65
 73
     6
 40
0.875
 49
0.25
 74
     0
 49
-0.125
 74
     0
 49
0.25
 74
     0
 49
-0.125
 74
     0
 49
0.0
 74
     0
 49
-0.125
 74
     0
  0
LTYPE
  5
67
330
34
100
AcDbSymbolTableRecord
100
AcDbLinetypeTableRecord
  2
BORDERX2
 70
     0
  3
Borderx2  ____  ____  .  ____  ____  .  ___
 72
    65
 73
     6
 40
3.5
 49
1.0
 74
     0
 49
-0.5
 74
     0
 49
1.0
 74
     0
 49
-0.5
 74
     0
 49
0.0
 74
     0
 49
-0.5
 74
     0
  0
LTYPE
  5
68
330
34
100
AcDbSymbolTableRecord
100
AcDbLinetypeTableRecord
  2
CENTER2
 70
     0
  3
Center2  ___ _ ___ _ ___ _ ___ _ ___ _ ___
 72
    65
 73
     4
 40
1.125
 49
0.75
 74
     0
 49
-0.125
 74
     0
 49
0.125
 74
     0
 49
-0.125
 74
     0
  0
LTYPE
  5
69
330
34
100
AcDbSymbolTableRecord
100
AcDbLinetypeTableRecord
  2
CENTERX2
 70
     0
  3
Centerx2  ________  __  ________  __  _____
 72
    65
 73
     4
 40
4.0
 49
2.5
 74
     0
 49
-0.5
 74
     0
 49
0.5
 74
     0
 49
-0.5
 74
     0
  0
LTYPE
  5
6A
330
34
100
AcDbSymbolTableRecord
100
AcDbLinetypeTableRecord
  2
DASHDOT2
 70
     0
  3
Dashdot2  _._._._._._._._._._._._._._._.
 72
    65
 73
     4
 40
0.5
 49
0.25
 74
     0
 49
-0.125
 74
     0
 49
0.0
 74
     0
 49
-0.125
 74
     0
  0
LTYPE
  5
6B
330
34
100
AcDbSymbolTableRecord
100
AcDbLinetypeTableRecord
  2
DASHDOTX2
 70
     0
  3
Dashdotx2 ____  .  ____  .  ____  .  ___
 72
    65
 73
     4
 40
2.0
 49
1.0
 74
     0
 49
-0.5
 74
     0
 49
0.0
 74
     0
 49
-0.5
 74
     0
  0
LTYPE
  5
6C
330
34
100
AcDbSymbolTableRecord
100
AcDbLinetypeTableRecord
  2
DASHED2
 70
     0
  3
Dashed2 _ _ _ _ _ _ _ _ _ _ _ _ _ _ _ _ _ 
 72
    65
 73
     2
 40
0.375
 49
0.25
 74
     0
 49
-0.125
 74
     0
  0
LTYPE
  5
6D
330
34
100
AcDbSymbolTableRecord
100
AcDbLinetypeTableRecord
  2
DASHEDX2
 70
     0
  3
Dashedx2 ____  ____  ____  ____  ____  ___
 72
    65
 73
     2
 40
1.5
 49
1.0
 74
     0
 49
-0.5
 74
     0
  0
LTYPE
  5
6E
330
34
100
AcDbSymbolTableRecord
100
AcDbLinetypeTableRecord
  2
DIVIDE
 70
     0
  3
Divide ____ . . ____ . . ____ . . ____ . . ____
 72
    65
 73
     6
 40
1.25
 49
0.5
 74
     0
 49
-0.25
 74
     0
 49
0.0
 74
     0
 49
-0.25
 74
     0
 49
0.0
 74
     0
 49
-0.25
 74
     0
  0
LTYPE
  5
6F
330
34
100
AcDbSymbolTableRecord
100
AcDbLinetypeTableRecord
  2
DIVIDE2
 70
     0
  3
Divide2 __..__..__..__..__..__..__..__.._
 72
    65
 73
     6
 40
0.625
 49
0.25
 74
     0
 49
-0.125
 74
     0
 49
0.0
 74
     0
 49
-0.125
 74
     0
 49
0.0
 74
     0
 49
-0.125
 74
     0
  0
LTYPE
  5
70
330
34
100
AcDbSymbolTableRecord
100
AcDbLinetypeTableRecord
  2
DIVIDEX2
 70
     0
  3
Dividex2 ________  .  .  ________  .  .  _
 72
    65
 73
     6
 40
2.5
 49
1.0
 74
     0
 49
-0.5
 74
     0
 49
0.0
 74
     0
 49
-0.5
 74
     0
 49
0.0
 74
     0
 49
-0.5
 74
     0
  0
LTYPE
  5
71
330
34
100
AcDbSymbolTableRecord
100
AcDbLinetypeTableRecord
  2
DOT
 70
     0
  3
Dot . . . . . . . . . . . . . . . . . . . . . . . .
 72
    65
 73
     2
 40
0.25
 49
0.0
 74
     0
 49
-0.25
 74
     0
  0
LTYPE
  5
72
330
34
100
AcDbSymbolTableRecord
100
AcDbLinetypeTableRecord
  2
DOT2
 70
     0
  3
Dot2 ........................................
 72
    65
 73
     2
 40
0.125
 49
0.0
 74
     0
 49
-0.125
 74
     0
  0
LTYPE
  5
73
330
34
100
AcDbSymbolTableRecord
100
AcDbLinetypeTableRecord
  2
DOTX2
 70
     0
  3
Dotx2 .  .  .  .  .  .  .  .  .  .  .  .  .  .
 72
    65
 73
     2
 40
0.5
 49
0.0
 74
     0
 49
-0.5
 74
     0
  0
LTYPE
  5
74
330
34
100
AcDbSymbolTableRecord
100
AcDbLinetypeTableRecord
  2
HIDDENX2
 70
     0
  3
Hiddenx2 ____ ____ ____ ____ ____ ____ ____ 
 72
    65
 73
     2
 40
0.75
 49
0.5
 74
     0
 49
-0.25
 74
     0
  0
LTYPE
  5
75
330
34
100
AcDbSymbolTableRecord
100
AcDbLinetypeTableRecord
  2
PHANTOM
 70
     0
  3
Phantom ______  __  __  ______  __  __  ______ 
 72
    65
 73
     6
 40
2.5
 49
1.25
 74
     0
 49
-0.25
 74
     0
 49
0.25
 74
     0
 49
-0.25
 74
     0
 49
0.25
 74
     0
 49
-0.25
 74
     0
  0
LTYPE
  5
76
330
34
100
AcDbSymbolTableRecord
100
AcDbLinetypeTableRecord
  2
PHANTOM2
 70
     0
  3
Phantom2 ___ _ _ ___ _ _ ___ _ _ ___ _ _
 72
    65
 73
     6
 40
1.25
 49
0.625
 74
     0
 49
-0.125
 74
     0
 49
0.125
 74
     0
 49
-0.125
 74
     0
 49
0.125
 74
     0
 49
-0.125
 74
     0
  0
LTYPE
  5
77
330
34
100
AcDbSymbolTableRecord
100
AcDbLinetypeTableRecord
  2
PHANTOMX2
 70
     0
  3
Phantomx2 ____________    ____    ____   _
 72
    65
 73
     6
 40
5.0
 49
2.5
 74
     0
 49
-0.5
 74
     0
 49
0.5
 74
     0
 49
-0.5
 74
     0
 49
0.5
 74
     0
 49
-0.5
 74
     0
  0
ENDTAB
  0
TABLE
  2
LAYER
  5
31
330
0
100
AcDbSymbolTable
 70
     4
  0
LAYER
  5
3F
330
31
100
AcDbSymbolTableRecord
100
AcDbLayerTableRecord
  2
0
 70
     0
 62
     7
  6
CONTINUOUS
  0
LAYER
  5
9
330
31
100
AcDbSymbolTableRecord
100
AcDbLayerTableRecord
  2
HOLME
 70
     0
 62
   247
  6
CONTINUOUS
  0
LAYER
  5
A
330
31
100
AcDbSymbolTableRecord
100
AcDbLayerTableRecord
  2
STUFEN
 70
     0
 62
   248
  6
CONTINUOUS
  0
LAYER
  5
B
330
31
100
AcDbSymbolTableRecord
100
AcDbLayerTableRecord
  2
BODEN
 70
     0
 62
     7
  6
CONTINUOUS
  0
ENDTAB
  0
TABLE
  2
STYLE
  5
32
330
0
100
AcDbSymbolTable
 70
     1
  0
STYLE
  5
40
330
32
100
AcDbSymbolTableRecord
100
AcDbTextStyleTableRecord
  2
STANDARD
 70
     0
 40
0.0
 41
1.0
 50
0.0
 71
     0
 42
0.2
  3
Arial
  4

1001
ACAD
1000
Arial
1071
        0
  0
ENDTAB
  0
TABLE
  2
VIEW
  5
35
330
0
100
AcDbSymbolTable
 70
     0
  0
ENDTAB
  0
TABLE
  2
UCS
  5
36
330
0
100
AcDbSymbolTable
 70
     0
  0
ENDTAB
  0
TABLE
  2
APPID
  5
38
330
0
100
AcDbSymbolTable
 70
     6
  0
APPID
  5
41
330
38
100
AcDbSymbolTableRecord
100
AcDbRegAppTableRecord
  2
ACAD
 70
     0
  0
APPID
  5
59
330
38
100
AcDbSymbolTableRecord
100
AcDbRegAppTableRecord
  2
VD_INVISIBLE_NOT_FOR_READ
 70
     0
  0
APPID
  5
5A
330
38
100
AcDbSymbolTableRecord
100
AcDbRegAppTableRecord
  2
VD_TEMPHATCH
 70
     0
  0
APPID
  5
5B
330
38
100
AcDbSymbolTableRecord
100
AcDbRegAppTableRecord
  2
VDEXTRAPARAM
 70
     0
  0
APPID
  5
5C
330
38
100
AcDbSymbolTableRecord
100
AcDbRegAppTableRecord
  2
PE_URL
 70
     0
  0
APPID
  5
5D
330
38
100
AcDbSymbolTableRecord
100
AcDbRegAppTableRecord
  2
VD_UNKNOWN
 70
     0
  0
ENDTAB
  0
TABLE
  2
DIMSTYLE
  5
39
330
0
100
AcDbSymbolTable
 70
     1
  0
DIMSTYLE
105
56
330
39
100
AcDbSymbolTableRecord
100
AcDbDimStyleTableRecord
  2
STANDARD
 70
     0
  3

  4

  5
VDDIM_DEFAULT
  6

  7

 40
1.0
 41
0.2
 42
0.05
 43
0.38
 44
0.2
 45
0.0
 46
0.0
 47
0.0
 48
0.0
140
0.2
141
0.09
142
0.0
143
25.4
144
1.0
145
0.0
146
1.0
147
0.09
 71
     0
 72
     0
 73
     0
 74
     0
 75
     0
 76
     0
 77
     0
 78
     0
170
     0
171
     2
172
     1
173
     0
174
     1
175
     0
176
     0
177
   256
178
   256
270
     2
271
     4
272
     4
273
     2
274
     2
340
40
275
     0
280
     0
281
     0
282
     0
283
     1
284
     0
285
     0
286
     0
287
     3
288
     1
  0
ENDTAB
  0
TABLE
  2
BLOCK_RECORD
  5
30
330
0
100
AcDbSymbolTable
 70
     3
  0
BLOCK_RECORD
  5
4E
330
30
100
AcDbSymbolTableRecord
100
AcDbBlockTableRecord
  2
*MODEL_SPACE
  0
BLOCK_RECORD
  5
4A
330
30
100
AcDbSymbolTableRecord
100
AcDbBlockTableRecord
  2
*PAPER_SPACE
  0
BLOCK_RECORD
  5
6
330
30
100
AcDbSymbolTableRecord
100
AcDbBlockTableRecord
  2
VDDIM_DEFAULT
  0
BLOCK_RECORD
  5
8
330
30
100
AcDbSymbolTableRecord
100
AcDbBlockTableRecord
  2
VDDIM_NONE
  0
ENDTAB
  0
ENDSEC
  0
SECTION
  2
BLOCKS
  0
BLOCK
  5
4F
330
4E
100
AcDbEntity
  8
0
100
AcDbBlockBegin
  2
*MODEL_SPACE
 70
     0
 71
     0
 10
0.0
 20
0.0
 30
0.0
  3
*MODEL_SPACE
  1

  0
ENDBLK
  5
50
330
4E
100
AcDbEntity
  8
0
100
AcDbBlockEnd
  0
BLOCK
  5
4B
330
4A
100
AcDbEntity
 67
     1
  8
0
100
AcDbBlockBegin
  2
*PAPER_SPACE
 70
     0
 71
     0
 10
0.0
 20
0.0
 30
0.0
  3
*PAPER_SPACE
  1

  0
ENDBLK
  5
4C
330
4A
100
AcDbEntity
 67
     1
  8
0
100
AcDbBlockEnd
  0
BLOCK
  5
78
330
6
100
AcDbEntity
  8
0
100
AcDbBlockBegin
  2
VDDIM_DEFAULT
 70
     0
 71
     0
 10
0.0
 20
0.0
 30
0.0
  3
VDDIM_DEFAULT
  1

  0
LWPOLYLINE
  5
7
330
6
100
AcDbEntity
  8
0
  6
CONTINUOUS
 62
     0
100
AcDbPolyline
 90
        4
 70
     0
 43
0.0
 10
0.0
 20
0.0
 10
-1.0
 20
-0.1665
 10
-1.0
 20
0.1665
 10
0.0
 20
0.0
1001
VDEXTRAPARAM
1071
        1
1071
        0
1071
        0
1040
1.0
1000

1000

1040
0.0
1040
0.0
  0
HATCH
  5
7C
330
6
100
AcDbEntity
  8
0
  6
CONTINUOUS
 62
     0
100
AcDbHatch
 10
0.0
 20
0.0
 30
0.0
210
0.0
220
0.0
230
1.0
  2
SOLID
 70
     1
 71
     0
 91
        1
 92
        2
 72
     0
 73
     1
 93
        3
 10
0.0
 20
0.0
 10
-1.0
 20
-0.1665
 10
-1.0
 20
0.1665
 97
        0
 75
     0
 76
     1
 98
        1
 10
0.0
 20
0.0
1001
VDEXTRAPARAM
1071
        1
1071
        0
1071
        0
1040
1.0
1000

1000

1040
0.0
1040
0.0
1001
VD_TEMPHATCH
1000
VD_TEMPHATCH
  0
ENDBLK
  5
79
330
6
100
AcDbEntity
  8
0
100
AcDbBlockEnd
  0
BLOCK
  5
7A
330
8
100
AcDbEntity
  8
0
100
AcDbBlockBegin
  2
VDDIM_NONE
 70
     0
 71
     0
 10
0.0
 20
0.0
 30
0.0
  3
VDDIM_NONE
  1

  0
ENDBLK
  5
7B
330
8
100
AcDbEntity
  8
0
100
AcDbBlockEnd
  0
ENDSEC
  0
SECTION
  2
ENTITIES
  0
LWPOLYLINE
  5
C
330
4E
100
AcDbEntity
  8
HOLME
100
AcDbPolyline
 90
       50
 70
     0
 43
0.0
 38
2974.999999999996
 10
0.0
 20
143.3333333334121
 10
-222.9995499975491
 20
143.3333333334121
 10
-222.9995499975491
 20
326.6666666667455
 10
-445.9995499975492
 20
326.6666666667455
 10
-445.9995499975492
 20
510.0000000000788
 10
-668.9995499975485
 20
510.0000000000788
 10
-668.9995499975485
 20
693.3333333334122
 10
-891.9995499975493
 20
693.3333333334122
 10
-891.9995499975493
 20
876.6666666667455
 10
-1114.999549997549
 20
876.6666666667455
 10
-1114.999549997549
 20
1060.000000000079
 10
-1337.999549997549
 20
1060.000000000079
 10
-1337.999549997549
 20
1243.333333333412
 10
-1560.999549997549
 20
1243.333333333412
 10
-1560.999549997549
 20
1426.666666666745
 10
-1783.999549997549
 20
1426.666666666745
 10
-1783.999549997549
 20
1610.000000000079
 10
-2006.999549997549
 20
1610.000000000079
 10
-2006.999549997549
 20
1793.333333333412
 10
-2229.999549997549
 20
1793.333333333412
 10
-2229.999549997549
 20
1976.666666666745
 10
-2452.999549997549
 20
1976.666666666745
 10
-2452.999549997549
 20
2160.000000000078
 10
-2675.999549997549
 20
2160.000000000078
 10
-2675.999549997549
 20
2343.333333333412
 10
-2898.999549997549
 20
2343.333333333412
 10
-2898.999549997549
 20
2526.666666666745
 10
-3121.999549997549
 20
2526.666666666745
 10
-3121.999549997549
 20
2710.000000000079
 10
-3315.0
 20
2710.000000000079
 10
-3315.0
 20
2558.324798650832
 10
-3315.0
 20
2710.000000000079
 10
-3315.0
 20
2558.324798650832
 10
-2976.245874728453
 20
2279.827386245224
 10
-2753.245874728454
 20
2096.494052911891
 10
-2530.245874728454
 20
1913.160719578558
 10
-2307.245874728454
 20
1729.827386245225
 10
-2084.245874728454
 20
1546.494052911891
 10
-1861.245874728454
 20
1363.160719578558
 10
-1638.245874728453
 20
1179.827386245225
 10
-1415.245874728453
 20
996.4940529118913
 10
-1192.245874728453
 20
813.1607195785581
 10
-969.2458747284536
 20
629.8273862452247
 10
-746.2458747284528
 20
446.4940529118913
 10
-523.2458747284535
 20
263.160719578558
 10
-203.1467449139034
 20
0.0000000000787915
 10
-203.1467449139034
 20
0.0000000000787915
 10
0.0
 20
0.0000000000787915
 10
0.0
 20
0.0000000000787915
 10
0.0
 20
143.3333333334121
210
0.0
220
1.0
230
0.0
  0
POLYLINE
  5
D
330
4E
100
AcDbEntity
  8
HOLME
100
AcDbPolyFaceMesh
 66
     1
 10
0.0
 20
0.0
 30
0.0
 70
    64
 71
   100
 72
   111
  0
VERTEX
  5
7E
330
D
100
AcDbEntity
  8
0
100
AcDbVertex
100
AcDbPolyFaceMeshVertex
 10
0.0
 20
2974.999999999996
 30
143.3333333334121
 70
   192
  0
VERTEX
  5
7F
330
D
100
AcDbEntity
  8
0
100
AcDbVertex
100
AcDbPolyFaceMeshVertex
 10
222.9995499975491
 20
2974.999999999996
 30
143.3333333334121
 70
   192
  0
VERTEX
  5
80
330
D
100
AcDbEntity
  8
0
100
AcDbVertex
100
AcDbPolyFaceMeshVertex
 10
222.9995499975491
 20
2974.999999999991
 30
326.6666666667455
 70
   192
  0
VERTEX
  5
81
330
D
100
AcDbEntity
  8
0
100
AcDbVertex
100
AcDbPolyFaceMeshVertex
 10
445.9995499975492
 20
2974.999999999991
 30
326.6666666667455
 70
   192
  0
VERTEX
  5
82
330
D
100
AcDbEntity
  8
0
100
AcDbVertex
100
AcDbPolyFaceMeshVertex
 10
445.9995499975492
 20
2974.999999999986
 30
510.0000000000788
 70
   192
  0
VERTEX
  5
83
330
D
100
AcDbEntity
  8
0
100
AcDbVertex
100
AcDbPolyFaceMeshVertex
 10
668.9995499975485
 20
2974.999999999986
 30
510.0000000000788
 70
   192
  0
VERTEX
  5
84
330
D
100
AcDbEntity
  8
0
100
AcDbVertex
100
AcDbPolyFaceMeshVertex
 10
668.9995499975485
 20
2974.999999999982
 30
693.3333333334122
 70
   192
  0
VERTEX
  5
85
330
D
100
AcDbEntity
  8
0
100
AcDbVertex
100
AcDbPolyFaceMeshVertex
 10
891.9995499975493
 20
2974.999999999982
 30
693.3333333334122
 70
   192
  0
VERTEX
  5
86
330
D
100
AcDbEntity
  8
0
100
AcDbVertex
100
AcDbPolyFaceMeshVertex
 10
891.9995499975493
 20
2974.999999999977
 30
876.6666666667455
 70
   192
  0
VERTEX
  5
87
330
D
100
AcDbEntity
  8
0
100
AcDbVertex
100
AcDbPolyFaceMeshVertex
 10
1114.999549997549
 20
2974.999999999977
 30
876.6666666667455
 70
   192
  0
VERTEX
  5
88
330
D
100
AcDbEntity
  8
0
100
AcDbVertex
100
AcDbPolyFaceMeshVertex
 10
1114.999549997549
 20
2974.999999999972
 30
1060.000000000079
 70
   192
  0
VERTEX
  5
89
330
D
100
AcDbEntity
  8
0
100
AcDbVertex
100
AcDbPolyFaceMeshVertex
 10
1337.999549997549
 20
2974.999999999972
 30
1060.000000000079
 70
   192
  0
VERTEX
  5
8A
330
D
100
AcDbEntity
  8
0
100
AcDbVertex
100
AcDbPolyFaceMeshVertex
 10
1337.999549997549
 20
2974.999999999967
 30
1243.333333333412
 70
   192
  0
VERTEX
  5
8B
330
D
100
AcDbEntity
  8
0
100
AcDbVertex
100
AcDbPolyFaceMeshVertex
 10
1560.999549997549
 20
2974.999999999967
 30
1243.333333333412
 70
   192
  0
VERTEX
  5
8C
330
D
100
AcDbEntity
  8
0
100
AcDbVertex
100
AcDbPolyFaceMeshVertex
 10
1560.999549997549
 20
2974.999999999962
 30
1426.666666666745
 70
   192
  0
VERTEX
  5
8D
330
D
100
AcDbEntity
  8
0
100
AcDbVertex
100
AcDbPolyFaceMeshVertex
 10
1783.999549997549
 20
2974.999999999962
 30
1426.666666666745
 70
   192
  0
VERTEX
  5
8E
330
D
100
AcDbEntity
  8
0
100
AcDbVertex
100
AcDbPolyFaceMeshVertex
 10
1783.999549997549
 20
2974.999999999957
 30
1610.000000000079
 70
   192
  0
VERTEX
  5
8F
330
D
100
AcDbEntity
  8
0
100
AcDbVertex
100
AcDbPolyFaceMeshVertex
 10
2006.999549997549
 20
2974.999999999957
 30
1610.000000000079
 70
   192
  0
VERTEX
  5
90
330
D
100
AcDbEntity
  8
0
100
AcDbVertex
100
AcDbPolyFaceMeshVertex
 10
2006.999549997549
 20
2974.999999999953
 30
1793.333333333412
 70
   192
  0
VERTEX
  5
91
330
D
100
AcDbEntity
  8
0
100
AcDbVertex
100
AcDbPolyFaceMeshVertex
 10
2229.999549997549
 20
2974.999999999953
 30
1793.333333333412
 70
   192
  0
VERTEX
  5
92
330
D
100
AcDbEntity
  8
0
100
AcDbVertex
100
AcDbPolyFaceMeshVertex
 10
2229.999549997549
 20
2974.999999999948
 30
1976.666666666745
 70
   192
  0
VERTEX
  5
93
330
D
100
AcDbEntity
  8
0
100
AcDbVertex
100
AcDbPolyFaceMeshVertex
 10
2452.999549997549
 20
2974.999999999948
 30
1976.666666666745
 70
   192
  0
VERTEX
  5
94
330
D
100
AcDbEntity
  8
0
100
AcDbVertex
100
AcDbPolyFaceMeshVertex
 10
2452.999549997549
 20
2974.999999999943
 30
2160.000000000078
 70
   192
  0
VERTEX
  5
95
330
D
100
AcDbEntity
  8
0
100
AcDbVertex
100
AcDbPolyFaceMeshVertex
 10
2675.999549997549
 20
2974.999999999943
 30
2160.000000000078
 70
   192
  0
VERTEX
  5
96
330
D
100
AcDbEntity
  8
0
100
AcDbVertex
100
AcDbPolyFaceMeshVertex
 10
2675.999549997549
 20
2974.999999999938
 30
2343.333333333412
 70
   192
  0
VERTEX
  5
97
330
D
100
AcDbEntity
  8
0
100
AcDbVertex
100
AcDbPolyFaceMeshVertex
 10
2898.999549997549
 20
2974.999999999938
 30
2343.333333333412
 70
   192
  0
VERTEX
  5
98
330
D
100
AcDbEntity
  8
0
100
AcDbVertex
100
AcDbPolyFaceMeshVertex
 10
2898.999549997549
 20
2974.999999999933
 30
2526.666666666745
 70
   192
  0
VERTEX
  5
99
330
D
100
AcDbEntity
  8
0
100
AcDbVertex
100
AcDbPolyFaceMeshVertex
 10
3121.999549997549
 20
2974.999999999933
 30
2526.666666666745
 70
   192
  0
VERTEX
  5
9A
330
D
100
AcDbEntity
  8
0
100
AcDbVertex
100
AcDbPolyFaceMeshVertex
 10
3121.999549997549
 20
2974.999999999928
 30
2710.000000000079
 70
   192
  0
VERTEX
  5
9B
330
D
100
AcDbEntity
  8
0
100
AcDbVertex
100
AcDbPolyFaceMeshVertex
 10
3315.0
 20
2974.999999999928
 30
2710.000000000079
 70
   192
  0
VERTEX
  5
9C
330
D
100
AcDbEntity
  8
0
100
AcDbVertex
100
AcDbPolyFaceMeshVertex
 10
3315.0
 20
2974.999999999932
 30
2558.324798650832
 70
   192
  0
VERTEX
  5
9D
330
D
100
AcDbEntity
  8
0
100
AcDbVertex
100
AcDbPolyFaceMeshVertex
 10
3315.0
 20
2974.999999999928
 30
2710.000000000079
 70
   192
  0
VERTEX
  5
9E
330
D
100
AcDbEntity
  8
0
100
AcDbVertex
100
AcDbPolyFaceMeshVertex
 10
3315.0
 20
2974.999999999932
 30
2558.324798650832
 70
   192
  0
VERTEX
  5
9F
330
D
100
AcDbEntity
  8
0
100
AcDbVertex
100
AcDbPolyFaceMeshVertex
 10
2976.245874728453
 20
2974.99999999994
 30
2279.827386245224
 70
   192
  0
VERTEX
  5
A0
330
D
100
AcDbEntity
  8
0
100
AcDbVertex
100
AcDbPolyFaceMeshVertex
 10
2753.245874728454
 20
2974.999999999945
 30
2096.494052911891
 70
   192
  0
VERTEX
  5
A1
330
D
100
AcDbEntity
  8
0
100
AcDbVertex
100
AcDbPolyFaceMeshVertex
 10
2530.245874728454
 20
2974.99999999995
 30
1913.160719578558
 70
   192
  0
VERTEX
  5
A2
330
D
100
AcDbEntity
  8
0
100
AcDbVertex
100
AcDbPolyFaceMeshVertex
 10
2307.245874728454
 20
2974.999999999954
 30
1729.827386245225
 70
   192
  0
VERTEX
  5
A3
330
D
100
AcDbEntity
  8
0
100
AcDbVertex
100
AcDbPolyFaceMeshVertex
 10
2084.245874728454
 20
2974.999999999959
 30
1546.494052911891
 70
   192
  0
VERTEX
  5
A4
330
D
100
AcDbEntity
  8
0
100
AcDbVertex
100
AcDbPolyFaceMeshVertex
 10
1861.245874728454
 20
2974.999999999964
 30
1363.160719578558
 70
   192
  0
VERTEX
  5
A5
330
D
100
AcDbEntity
  8
0
100
AcDbVertex
100
AcDbPolyFaceMeshVertex
 10
1638.245874728453
 20
2974.999999999969
 30
1179.827386245225
 70
   192
  0
VERTEX
  5
A6
330
D
100
AcDbEntity
  8
0
100
AcDbVertex
100
AcDbPolyFaceMeshVertex
 10
1415.245874728453
 20
2974.999999999974
 30
996.4940529118913
 70
   192
  0
VERTEX
  5
A7
330
D
100
AcDbEntity
  8
0
100
AcDbVertex
100
AcDbPolyFaceMeshVertex
 10
1192.245874728453
 20
2974.999999999979
 30
813.1607195785581
 70
   192
  0
VERTEX
  5
A8
330
D
100
AcDbEntity
  8
0
100
AcDbVertex
100
AcDbPolyFaceMeshVertex
 10
969.2458747284536
 20
2974.999999999983
 30
629.8273862452247
 70
   192
  0
VERTEX
  5
A9
330
D
100
AcDbEntity
  8
0
100
AcDbVertex
100
AcDbPolyFaceMeshVertex
 10
746.2458747284528
 20
2974.999999999988
 30
446.4940529118913
 70
   192
  0
VERTEX
  5
AA
330
D
100
AcDbEntity
  8
0
100
AcDbVertex
100
AcDbPolyFaceMeshVertex
 10
523.2458747284535
 20
2974.999999999993
 30
263.160719578558
 70
   192
  0
VERTEX
  5
AB
330
D
100
AcDbEntity
  8
0
100
AcDbVertex
100
AcDbPolyFaceMeshVertex
 10
203.1467449139034
 20
2975.0
 30
0.0000000000787915
 70
   192
  0
VERTEX
  5
AC
330
D
100
AcDbEntity
  8
0
100
AcDbVertex
100
AcDbPolyFaceMeshVertex
 10
203.1467449139034
 20
2975.0
 30
0.0000000000787915
 70
   192
  0
VERTEX
  5
AD
330
D
100
AcDbEntity
  8
0
100
AcDbVertex
100
AcDbPolyFaceMeshVertex
 10
0.0
 20
2975.0
 30
0.0000000000787915
 70
   192
  0
VERTEX
  5
AE
330
D
100
AcDbEntity
  8
0
100
AcDbVertex
100
AcDbPolyFaceMeshVertex
 10
0.0
 20
2975.0
 30
0.0000000000787915
 70
   192
  0
VERTEX
  5
AF
330
D
100
AcDbEntity
  8
0
100
AcDbVertex
100
AcDbPolyFaceMeshVertex
 10
0.0
 20
2974.999999999996
 30
143.3333333334121
 70
   192
  0
VERTEX
  5
B0
330
D
100
AcDbEntity
  8
0
100
AcDbVertex
100
AcDbPolyFaceMeshVertex
 10
0.0
 20
2959.999999999996
 30
143.3333333334117
 70
   192
  0
VERTEX
  5
B1
330
D
100
AcDbEntity
  8
0
100
AcDbVertex
100
AcDbPolyFaceMeshVertex
 10
222.9995499975491
 20
2959.999999999996
 30
143.3333333334117
 70
   192
  0
VERTEX
  5
B2
330
D
100
AcDbEntity
  8
0
100
AcDbVertex
100
AcDbPolyFaceMeshVertex
 10
222.9995499975491
 20
2959.999999999991
 30
326.6666666667451
 70
   192
  0
VERTEX
  5
B3
330
D
100
AcDbEntity
  8
0
100
AcDbVertex
100
AcDbPolyFaceMeshVertex
 10
445.9995499975492
 20
2959.999999999991
 30
326.6666666667451
 70
   192
  0
VERTEX
  5
B4
330
D
100
AcDbEntity
  8
0
100
AcDbVertex
100
AcDbPolyFaceMeshVertex
 10
445.9995499975492
 20
2959.999999999986
 30
510.0000000000784
 70
   192
  0
VERTEX
  5
B5
330
D
100
AcDbEntity
  8
0
100
AcDbVertex
100
AcDbPolyFaceMeshVertex
 10
668.9995499975485
 20
2959.999999999986
 30
510.0000000000784
 70
   192
  0
VERTEX
  5
B6
330
D
100
AcDbEntity
  8
0
100
AcDbVertex
100
AcDbPolyFaceMeshVertex
 10
668.9995499975485
 20
2959.999999999982
 30
693.3333333334118
 70
   192
  0
VERTEX
  5
B7
330
D
100
AcDbEntity
  8
0
100
AcDbVertex
100
AcDbPolyFaceMeshVertex
 10
891.9995499975493
 20
2959.999999999982
 30
693.3333333334118
 70
   192
  0
VERTEX
  5
B8
330
D
100
AcDbEntity
  8
0
100
AcDbVertex
100
AcDbPolyFaceMeshVertex
 10
891.9995499975493
 20
2959.999999999977
 30
876.6666666667452
 70
   192
  0
VERTEX
  5
B9
330
D
100
AcDbEntity
  8
0
100
AcDbVertex
100
AcDbPolyFaceMeshVertex
 10
1114.999549997549
 20
2959.999999999977
 30
876.6666666667452
 70
   192
  0
VERTEX
  5
BA
330
D
100
AcDbEntity
  8
0
100
AcDbVertex
100
AcDbPolyFaceMeshVertex
 10
1114.999549997549
 20
2959.999999999972
 30
1060.000000000078
 70
   192
  0
VERTEX
  5
BB
330
D
100
AcDbEntity
  8
0
100
AcDbVertex
100
AcDbPolyFaceMeshVertex
 10
1337.999549997549
 20
2959.999999999972
 30
1060.000000000078
 70
   192
  0
VERTEX
  5
BC
330
D
100
AcDbEntity
  8
0
100
AcDbVertex
100
AcDbPolyFaceMeshVertex
 10
1337.999549997549
 20
2959.999999999967
 30
1243.333333333412
 70
   192
  0
VERTEX
  5
BD
330
D
100
AcDbEntity
  8
0
100
AcDbVertex
100
AcDbPolyFaceMeshVertex
 10
1560.999549997549
 20
2959.999999999967
 30
1243.333333333412
 70
   192
  0
VERTEX
  5
BE
330
D
100
AcDbEntity
  8
0
100
AcDbVertex
100
AcDbPolyFaceMeshVertex
 10
1560.999549997549
 20
2959.999999999962
 30
1426.666666666745
 70
   192
  0
VERTEX
  5
BF
330
D
100
AcDbEntity
  8
0
100
AcDbVertex
100
AcDbPolyFaceMeshVertex
 10
1783.999549997549
 20
2959.999999999962
 30
1426.666666666745
 70
   192
  0
VERTEX
  5
C0
330
D
100
AcDbEntity
  8
0
100
AcDbVertex
100
AcDbPolyFaceMeshVertex
 10
1783.999549997549
 20
2959.999999999957
 30
1610.000000000078
 70
   192
  0
VERTEX
  5
C1
330
D
100
AcDbEntity
  8
0
100
AcDbVertex
100
AcDbPolyFaceMeshVertex
 10
2006.999549997549
 20
2959.999999999957
 30
1610.000000000078
 70
   192
  0
VERTEX
  5
C2
330
D
100
AcDbEntity
  8
0
100
AcDbVertex
100
AcDbPolyFaceMeshVertex
 10
2006.999549997549
 20
2959.999999999953
 30
1793.333333333412
 70
   192
  0
VERTEX
  5
C3
330
D
100
AcDbEntity
  8
0
100
AcDbVertex
100
AcDbPolyFaceMeshVertex
 10
2229.999549997549
 20
2959.999999999953
 30
1793.333333333412
 70
   192
  0
VERTEX
  5
C4
330
D
100
AcDbEntity
  8
0
100
AcDbVertex
100
AcDbPolyFaceMeshVertex
 10
2229.999549997549
 20
2959.999999999948
 30
1976.666666666745
 70
   192
  0
VERTEX
  5
C5
330
D
100
AcDbEntity
  8
0
100
AcDbVertex
100
AcDbPolyFaceMeshVertex
 10
2452.999549997549
 20
2959.999999999948
 30
1976.666666666745
 70
   192
  0
VERTEX
  5
C6
330
D
100
AcDbEntity
  8
0
100
AcDbVertex
100
AcDbPolyFaceMeshVertex
 10
2452.999549997549
 20
2959.999999999943
 30
2160.000000000078
 70
   192
  0
VERTEX
  5
C7
330
D
100
AcDbEntity
  8
0
100
AcDbVertex
100
AcDbPolyFaceMeshVertex
 10
2675.999549997549
 20
2959.999999999943
 30
2160.000000000078
 70
   192
  0
VERTEX
  5
C8
330
D
100
AcDbEntity
  8
0
100
AcDbVertex
100
AcDbPolyFaceMeshVertex
 10
2675.999549997549
 20
2959.999999999938
 30
2343.333333333411
 70
   192
  0
VERTEX
  5
C9
330
D
100
AcDbEntity
  8
0
100
AcDbVertex
100
AcDbPolyFaceMeshVertex
 10
2898.999549997549
 20
2959.999999999938
 30
2343.333333333411
 70
   192
  0
VERTEX
  5
CA
330
D
100
AcDbEntity
  8
0
100
AcDbVertex
100
AcDbPolyFaceMeshVertex
 10
2898.999549997549
 20
2959.999999999933
 30
2526.666666666745
 70
   192
  0
VERTEX
  5
CB
330
D
100
AcDbEntity
  8
0
100
AcDbVertex
100
AcDbPolyFaceMeshVertex
 10
3121.999549997549
 20
2959.999999999933
 30
2526.666666666745
 70
   192
  0
VERTEX
  5
CC
330
D
100
AcDbEntity
  8
0
100
AcDbVertex
100
AcDbPolyFaceMeshVertex
 10
3121.999549997549
 20
2959.999999999928
 30
2710.000000000078
 70
   192
  0
VERTEX
  5
CD
330
D
100
AcDbEntity
  8
0
100
AcDbVertex
100
AcDbPolyFaceMeshVertex
 10
3315.0
 20
2959.999999999928
 30
2710.000000000078
 70
   192
  0
VERTEX
  5
CE
330
D
100
AcDbEntity
  8
0
100
AcDbVertex
100
AcDbPolyFaceMeshVertex
 10
3315.0
 20
2959.999999999932
 30
2558.324798650832
 70
   192
  0
VERTEX
  5
CF
330
D
100
AcDbEntity
  8
0
100
AcDbVertex
100
AcDbPolyFaceMeshVertex
 10
3315.0
 20
2959.999999999928
 30
2710.000000000078
 70
   192
  0
VERTEX
  5
D0
330
D
100
AcDbEntity
  8
0
100
AcDbVertex
100
AcDbPolyFaceMeshVertex
 10
3315.0
 20
2959.999999999932
 30
2558.324798650832
 70
   192
  0
VERTEX
  5
D1
330
D
100
AcDbEntity
  8
0
100
AcDbVertex
100
AcDbPolyFaceMeshVertex
 10
2976.245874728453
 20
2959.99999999994
 30
2279.827386245224
 70
   192
  0
VERTEX
  5
D2
330
D
100
AcDbEntity
  8
0
100
AcDbVertex
100
AcDbPolyFaceMeshVertex
 10
2753.245874728454
 20
2959.999999999945
 30
2096.49405291189
 70
   192
  0
VERTEX
  5
D3
330
D
100
AcDbEntity
  8
0
100
AcDbVertex
100
AcDbPolyFaceMeshVertex
 10
2530.245874728454
 20
2959.99999999995
 30
1913.160719578557
 70
   192
  0
VERTEX
  5
D4
330
D
100
AcDbEntity
  8
0
100
AcDbVertex
100
AcDbPolyFaceMeshVertex
 10
2307.245874728454
 20
2959.999999999954
 30
1729.827386245224
 70
   192
  0
VERTEX
  5
D5
330
D
100
AcDbEntity
  8
0
100
AcDbVertex
100
AcDbPolyFaceMeshVertex
 10
2084.245874728454
 20
2959.999999999959
 30
1546.494052911891
 70
   192
  0
VERTEX
  5
D6
330
D
100
AcDbEntity
  8
0
100
AcDbVertex
100
AcDbPolyFaceMeshVertex
 10
1861.245874728454
 20
2959.999999999964
 30
1363.160719578558
 70
   192
  0
VERTEX
  5
D7
330
D
100
AcDbEntity
  8
0
100
AcDbVertex
100
AcDbPolyFaceMeshVertex
 10
1638.245874728453
 20
2959.999999999969
 30
1179.827386245224
 70
   192
  0
VERTEX
  5
D8
330
D
100
AcDbEntity
  8
0
100
AcDbVertex
100
AcDbPolyFaceMeshVertex
 10
1415.245874728453
 20
2959.999999999974
 30
996.494052911891
 70
   192
  0
VERTEX
  5
D9
330
D
100
AcDbEntity
  8
0
100
AcDbVertex
100
AcDbPolyFaceMeshVertex
 10
1192.245874728453
 20
2959.999999999979
 30
813.1607195785578
 70
   192
  0
VERTEX
  5
DA
330
D
100
AcDbEntity
  8
0
100
AcDbVertex
100
AcDbPolyFaceMeshVertex
 10
969.2458747284536
 20
2959.999999999983
 30
629.8273862452244
 70
   192
  0
VERTEX
  5
DB
330
D
100
AcDbEntity
  8
0
100
AcDbVertex
100
AcDbPolyFaceMeshVertex
 10
746.2458747284528
 20
2959.999999999988
 30
446.494052911891
 70
   192
  0
VERTEX
  5
DC
330
D
100
AcDbEntity
  8
0
100
AcDbVertex
100
AcDbPolyFaceMeshVertex
 10
523.2458747284535
 20
2959.999999999993
 30
263.1607195785576
 70
   192
  0
VERTEX
  5
DD
330
D
100
AcDbEntity
  8
0
100
AcDbVertex
100
AcDbPolyFaceMeshVertex
 10
203.1467449139034
 20
2960.0
 30
0.0000000000783942
 70
   192
  0
VERTEX
  5
DE
330
D
100
AcDbEntity
  8
0
100
AcDbVertex
100
AcDbPolyFaceMeshVertex
 10
203.1467449139034
 20
2960.0
 30
0.0000000000783942
 70
   192
  0
VERTEX
  5
DF
330
D
100
AcDbEntity
  8
0
100
AcDbVertex
100
AcDbPolyFaceMeshVertex
 10
0.0
 20
2960.0
 30
0.0000000000783942
 70
   192
  0
VERTEX
  5
E0
330
D
100
AcDbEntity
  8
0
100
AcDbVertex
100
AcDbPolyFaceMeshVertex
 10
0.0
 20
2960.0
 30
0.0000000000783942
 70
   192
  0
VERTEX
  5
E1
330
D
100
AcDbEntity
  8
0
100
AcDbVertex
100
AcDbPolyFaceMeshVertex
 10
0.0
 20
2959.999999999996
 30
143.3333333334117
 70
   192
  0
VERTEX
  5
E2
330
D
100
AcDbEntity
  8
0
 62
     0
100
AcDbFaceRecord
 10
0.0
 20
0.0
 30
0.0
 70
   128
 71
    -2
 72
    -3
 73
    -4
 74
    -4
  0
VERTEX
  5
E3
330
D
100
AcDbEntity
  8
0
 62
     0
100
AcDbFaceRecord
 10
0.0
 20
0.0
 30
0.0
 70
   128
 71
   -52
 72
   -53
 73
   -54
 74
   -54
  0
VERTEX
  5
E4
330
D
100
AcDbEntity
  8
0
 62
     0
100
AcDbFaceRecord
 10
0.0
 20
0.0
 30
0.0
 70
   128
 71
    -4
 72
    -5
 73
    -6
 74
    -6
  0
VERTEX
  5
E5
330
D
100
AcDbEntity
  8
0
 62
     0
100
AcDbFaceRecord
 10
0.0
 20
0.0
 30
0.0
 70
   128
 71
   -54
 72
   -55
 73
   -56
 74
   -56
  0
VERTEX
  5
E6
330
D
100
AcDbEntity
  8
0
 62
     0
100
AcDbFaceRecord
 10
0.0
 20
0.0
 30
0.0
 70
   128
 71
    -6
 72
    -7
 73
    -8
 74
    -8
  0
VERTEX
  5
E7
330
D
100
AcDbEntity
  8
0
 62
     0
100
AcDbFaceRecord
 10
0.0
 20
0.0
 30
0.0
 70
   128
 71
   -56
 72
   -57
 73
   -58
 74
   -58
  0
VERTEX
  5
E8
330
D
100
AcDbEntity
  8
0
 62
     0
100
AcDbFaceRecord
 10
0.0
 20
0.0
 30
0.0
 70
   128
 71
    -8
 72
    -9
 73
   -10
 74
   -10
  0
VERTEX
  5
E9
330
D
100
AcDbEntity
  8
0
 62
     0
100
AcDbFaceRecord
 10
0.0
 20
0.0
 30
0.0
 70
   128
 71
   -58
 72
   -59
 73
   -60
 74
   -60
  0
VERTEX
  5
EA
330
D
100
AcDbEntity
  8
0
 62
     0
100
AcDbFaceRecord
 10
0.0
 20
0.0
 30
0.0
 70
   128
 71
   -10
 72
   -11
 73
   -12
 74
   -12
  0
VERTEX
  5
EB
330
D
100
AcDbEntity
  8
0
 62
     0
100
AcDbFaceRecord
 10
0.0
 20
0.0
 30
0.0
 70
   128
 71
   -60
 72
   -61
 73
   -62
 74
   -62
  0
VERTEX
  5
EC
330
D
100
AcDbEntity
  8
0
 62
     0
100
AcDbFaceRecord
 10
0.0
 20
0.0
 30
0.0
 70
   128
 71
   -12
 72
   -13
 73
   -14
 74
   -14
  0
VERTEX
  5
ED
330
D
100
AcDbEntity
  8
0
 62
     0
100
AcDbFaceRecord
 10
0.0
 20
0.0
 30
0.0
 70
   128
 71
   -62
 72
   -63
 73
   -64
 74
   -64
  0
VERTEX
  5
EE
330
D
100
AcDbEntity
  8
0
 62
     0
100
AcDbFaceRecord
 10
0.0
 20
0.0
 30
0.0
 70
   128
 71
   -14
 72
   -15
 73
   -16
 74
   -16
  0
VERTEX
  5
EF
330
D
100
AcDbEntity
  8
0
 62
     0
100
AcDbFaceRecord
 10
0.0
 20
0.0
 30
0.0
 70
   128
 71
   -64
 72
   -65
 73
   -66
 74
   -66
  0
VERTEX
  5
F0
330
D
100
AcDbEntity
  8
0
 62
     0
100
AcDbFaceRecord
 10
0.0
 20
0.0
 30
0.0
 70
   128
 71
   -16
 72
   -17
 73
   -18
 74
   -18
  0
VERTEX
  5
F1
330
D
100
AcDbEntity
  8
0
 62
     0
100
AcDbFaceRecord
 10
0.0
 20
0.0
 30
0.0
 70
   128
 71
   -66
 72
   -67
 73
   -68
 74
   -68
  0
VERTEX
  5
F2
330
D
100
AcDbEntity
  8
0
 62
     0
100
AcDbFaceRecord
 10
0.0
 20
0.0
 30
0.0
 70
   128
 71
   -18
 72
   -19
 73
   -20
 74
   -20
  0
VERTEX
  5
F3
330
D
100
AcDbEntity
  8
0
 62
     0
100
AcDbFaceRecord
 10
0.0
 20
0.0
 30
0.0
 70
   128
 71
   -68
 72
   -69
 73
   -70
 74
   -70
  0
VERTEX
  5
F4
330
D
100
AcDbEntity
  8
0
 62
     0
100
AcDbFaceRecord
 10
0.0
 20
0.0
 30
0.0
 70
   128
 71
   -20
 72
   -21
 73
   -22
 74
   -22
  0
VERTEX
  5
F5
330
D
100
AcDbEntity
  8
0
 62
     0
100
AcDbFaceRecord
 10
0.0
 20
0.0
 30
0.0
 70
   128
 71
   -70
 72
   -71
 73
   -72
 74
   -72
  0
VERTEX
  5
F6
330
D
100
AcDbEntity
  8
0
 62
     0
100
AcDbFaceRecord
 10
0.0
 20
0.0
 30
0.0
 70
   128
 71
   -22
 72
   -23
 73
   -24
 74
   -24
  0
VERTEX
  5
F7
330
D
100
AcDbEntity
  8
0
 62
     0
100
AcDbFaceRecord
 10
0.0
 20
0.0
 30
0.0
 70
   128
 71
   -72
 72
   -73
 73
   -74
 74
   -74
  0
VERTEX
  5
F8
330
D
100
AcDbEntity
  8
0
 62
     0
100
AcDbFaceRecord
 10
0.0
 20
0.0
 30
0.0
 70
   128
 71
   -24
 72
   -25
 73
   -26
 74
   -26
  0
VERTEX
  5
F9
330
D
100
AcDbEntity
  8
0
 62
     0
100
AcDbFaceRecord
 10
0.0
 20
0.0
 30
0.0
 70
   128
 71
   -74
 72
   -75
 73
   -76
 74
   -76
  0
VERTEX
  5
FA
330
D
100
AcDbEntity
  8
0
 62
     0
100
AcDbFaceRecord
 10
0.0
 20
0.0
 30
0.0
 70
   128
 71
   -26
 72
   -27
 73
   -28
 74
   -28
  0
VERTEX
  5
FB
330
D
100
AcDbEntity
  8
0
 62
     0
100
AcDbFaceRecord
 10
0.0
 20
0.0
 30
0.0
 70
   128
 71
   -76
 72
   -77
 73
   -78
 74
   -78
  0
VERTEX
  5
FC
330
D
100
AcDbEntity
  8
0
 62
     0
100
AcDbFaceRecord
 10
0.0
 20
0.0
 30
0.0
 70
   128
 71
   -28
 72
   -29
 73
   -30
 74
   -30
  0
VERTEX
  5
FD
330
D
100
AcDbEntity
  8
0
 62
     0
100
AcDbFaceRecord
 10
0.0
 20
0.0
 30
0.0
 70
   128
 71
   -78
 72
   -79
 73
   -80
 74
   -80
  0
VERTEX
  5
FE
330
D
100
AcDbEntity
  8
0
 62
     0
100
AcDbFaceRecord
 10
0.0
 20
0.0
 30
0.0
 70
   128
 71
   -28
 72
   -30
 73
   -31
 74
   -31
  0
VERTEX
  5
FF
330
D
100
AcDbEntity
  8
0
 62
     0
100
AcDbFaceRecord
 10
0.0
 20
0.0
 30
0.0
 70
   128
 71
   -78
 72
   -80
 73
   -81
 74
   -81
  0
VERTEX
  5
100
330
D
100
AcDbEntity
  8
0
 62
     0
100
AcDbFaceRecord
 10
0.0
 20
0.0
 30
0.0
 70
   128
 71
   -47
 72
   -49
 73
   -50
 74
   -50
  0
VERTEX
  5
101
330
D
100
AcDbEntity
  8
0
 62
     0
100
AcDbFaceRecord
 10
0.0
 20
0.0
 30
0.0
 70
   128
 71
   -97
 72
   -99
 73
  -100
 74
  -100
  0
VERTEX
  5
102
330
D
100
AcDbEntity
  8
0
 62
     0
100
AcDbFaceRecord
 10
0.0
 20
0.0
 30
0.0
 70
   128
 71
   -47
 72
   -50
 73
    -2
 74
    -2
  0
VERTEX
  5
103
330
D
100
AcDbEntity
  8
0
 62
     0
100
AcDbFaceRecord
 10
0.0
 20
0.0
 30
0.0
 70
   128
 71
   -97
 72
  -100
 73
   -52
 74
   -52
  0
VERTEX
  5
104
330
D
100
AcDbEntity
  8
0
 62
     0
100
AcDbFaceRecord
 10
0.0
 20
0.0
 30
0.0
 70
   128
 71
   -47
 72
    -2
 73
    -4
 74
    -4
  0
VERTEX
  5
105
330
D
100
AcDbEntity
  8
0
 62
     0
100
AcDbFaceRecord
 10
0.0
 20
0.0
 30
0.0
 70
   128
 71
   -97
 72
   -52
 73
   -54
 74
   -54
  0
VERTEX
  5
106
330
D
100
AcDbEntity
  8
0
 62
     0
100
AcDbFaceRecord
 10
0.0
 20
0.0
 30
0.0
 70
   128
 71
   -47
 72
    -4
 73
    -6
 74
    -6
  0
VERTEX
  5
107
330
D
100
AcDbEntity
  8
0
 62
     0
100
AcDbFaceRecord
 10
0.0
 20
0.0
 30
0.0
 70
   128
 71
   -97
 72
   -54
 73
   -56
 74
   -56
  0
VERTEX
  5
108
330
D
100
AcDbEntity
  8
0
 62
     0
100
AcDbFaceRecord
 10
0.0
 20
0.0
 30
0.0
 70
   128
 71
   -47
 72
    -6
 73
    -8
 74
    -8
  0
VERTEX
  5
109
330
D
100
AcDbEntity
  8
0
 62
     0
100
AcDbFaceRecord
 10
0.0
 20
0.0
 30
0.0
 70
   128
 71
   -97
 72
   -56
 73
   -58
 74
   -58
  0
VERTEX
  5
10A
330
D
100
AcDbEntity
  8
0
 62
     0
100
AcDbFaceRecord
 10
0.0
 20
0.0
 30
0.0
 70
   128
 71
   -47
 72
    -8
 73
   -10
 74
   -10
  0
VERTEX
  5
10B
330
D
100
AcDbEntity
  8
0
 62
     0
100
AcDbFaceRecord
 10
0.0
 20
0.0
 30
0.0
 70
   128
 71
   -97
 72
   -58
 73
   -60
 74
   -60
  0
VERTEX
  5
10C
330
D
100
AcDbEntity
  8
0
 62
     0
100
AcDbFaceRecord
 10
0.0
 20
0.0
 30
0.0
 70
   128
 71
   -47
 72
   -10
 73
   -12
 74
   -12
  0
VERTEX
  5
10D
330
D
100
AcDbEntity
  8
0
 62
     0
100
AcDbFaceRecord
 10
0.0
 20
0.0
 30
0.0
 70
   128
 71
   -97
 72
   -60
 73
   -62
 74
   -62
  0
VERTEX
  5
10E
330
D
100
AcDbEntity
  8
0
 62
     0
100
AcDbFaceRecord
 10
0.0
 20
0.0
 30
0.0
 70
   128
 71
   -47
 72
   -12
 73
   -14
 74
   -14
  0
VERTEX
  5
10F
330
D
100
AcDbEntity
  8
0
 62
     0
100
AcDbFaceRecord
 10
0.0
 20
0.0
 30
0.0
 70
   128
 71
   -97
 72
   -62
 73
   -64
 74
   -64
  0
VERTEX
  5
110
330
D
100
AcDbEntity
  8
0
 62
     0
100
AcDbFaceRecord
 10
0.0
 20
0.0
 30
0.0
 70
   128
 71
   -47
 72
   -14
 73
   -16
 74
   -16
  0
VERTEX
  5
111
330
D
100
AcDbEntity
  8
0
 62
     0
100
AcDbFaceRecord
 10
0.0
 20
0.0
 30
0.0
 70
   128
 71
   -97
 72
   -64
 73
   -66
 74
   -66
  0
VERTEX
  5
112
330
D
100
AcDbEntity
  8
0
 62
     0
100
AcDbFaceRecord
 10
0.0
 20
0.0
 30
0.0
 70
   128
 71
   -47
 72
   -16
 73
   -18
 74
   -18
  0
VERTEX
  5
113
330
D
100
AcDbEntity
  8
0
 62
     0
100
AcDbFaceRecord
 10
0.0
 20
0.0
 30
0.0
 70
   128
 71
   -97
 72
   -66
 73
   -68
 74
   -68
  0
VERTEX
  5
114
330
D
100
AcDbEntity
  8
0
 62
     0
100
AcDbFaceRecord
 10
0.0
 20
0.0
 30
0.0
 70
   128
 71
   -47
 72
   -18
 73
   -20
 74
   -20
  0
VERTEX
  5
115
330
D
100
AcDbEntity
  8
0
 62
     0
100
AcDbFaceRecord
 10
0.0
 20
0.0
 30
0.0
 70
   128
 71
   -97
 72
   -68
 73
   -70
 74
   -70
  0
VERTEX
  5
116
330
D
100
AcDbEntity
  8
0
 62
     0
100
AcDbFaceRecord
 10
0.0
 20
0.0
 30
0.0
 70
   128
 71
   -47
 72
   -20
 73
   -22
 74
   -22
  0
VERTEX
  5
117
330
D
100
AcDbEntity
  8
0
 62
     0
100
AcDbFaceRecord
 10
0.0
 20
0.0
 30
0.0
 70
   128
 71
   -97
 72
   -70
 73
   -72
 74
   -72
  0
VERTEX
  5
118
330
D
100
AcDbEntity
  8
0
 62
     0
100
AcDbFaceRecord
 10
0.0
 20
0.0
 30
0.0
 70
   128
 71
   -47
 72
   -22
 73
   -24
 74
   -24
  0
VERTEX
  5
119
330
D
100
AcDbEntity
  8
0
 62
     0
100
AcDbFaceRecord
 10
0.0
 20
0.0
 30
0.0
 70
   128
 71
   -97
 72
   -72
 73
   -74
 74
   -74
  0
VERTEX
  5
11A
330
D
100
AcDbEntity
  8
0
 62
     0
100
AcDbFaceRecord
 10
0.0
 20
0.0
 30
0.0
 70
   128
 71
   -47
 72
   -24
 73
   -26
 74
   -26
  0
VERTEX
  5
11B
330
D
100
AcDbEntity
  8
0
 62
     0
100
AcDbFaceRecord
 10
0.0
 20
0.0
 30
0.0
 70
   128
 71
   -97
 72
   -74
 73
   -76
 74
   -76
  0
VERTEX
  5
11C
330
D
100
AcDbEntity
  8
0
 62
     0
100
AcDbFaceRecord
 10
0.0
 20
0.0
 30
0.0
 70
   128
 71
   -47
 72
   -26
 73
   -28
 74
   -28
  0
VERTEX
  5
11D
330
D
100
AcDbEntity
  8
0
 62
     0
100
AcDbFaceRecord
 10
0.0
 20
0.0
 30
0.0
 70
   128
 71
   -97
 72
   -76
 73
   -78
 74
   -78
  0
VERTEX
  5
11E
330
D
100
AcDbEntity
  8
0
 62
     0
100
AcDbFaceRecord
 10
0.0
 20
0.0
 30
0.0
 70
   128
 71
   -28
 72
   -31
 73
   -47
 74
   -47
  0
VERTEX
  5
11F
330
D
100
AcDbEntity
  8
0
 62
     0
100
AcDbFaceRecord
 10
0.0
 20
0.0
 30
0.0
 70
   128
 71
   -78
 72
   -81
 73
   -97
 74
   -97
  0
VERTEX
  5
120
330
D
100
AcDbEntity
  8
0
 62
     0
100
AcDbFaceRecord
 10
0.0
 20
0.0
 30
0.0
 70
   128
 71
     1
 72
     2
 73
    52
 74
    51
  0
VERTEX
  5
121
330
D
100
AcDbEntity
  8
0
 62
     0
100
AcDbFaceRecord
 10
0.0
 20
0.0
 30
0.0
 70
   128
 71
     2
 72
     3
 73
    53
 74
    52
  0
VERTEX
  5
122
330
D
100
AcDbEntity
  8
0
 62
     0
100
AcDbFaceRecord
 10
0.0
 20
0.0
 30
0.0
 70
   128
 71
     3
 72
     4
 73
    54
 74
    53
  0
VERTEX
  5
123
330
D
100
AcDbEntity
  8
0
 62
     0
100
AcDbFaceRecord
 10
0.0
 20
0.0
 30
0.0
 70
   128
 71
     4
 72
     5
 73
    55
 74
    54
  0
VERTEX
  5
124
330
D
100
AcDbEntity
  8
0
 62
     0
100
AcDbFaceRecord
 10
0.0
 20
0.0
 30
0.0
 70
   128
 71
     5
 72
     6
 73
    56
 74
    55
  0
VERTEX
  5
125
330
D
100
AcDbEntity
  8
0
 62
     0
100
AcDbFaceRecord
 10
0.0
 20
0.0
 30
0.0
 70
   128
 71
     6
 72
     7
 73
    57
 74
    56
  0
VERTEX
  5
126
330
D
100
AcDbEntity
  8
0
 62
     0
100
AcDbFaceRecord
 10
0.0
 20
0.0
 30
0.0
 70
   128
 71
     7
 72
     8
 73
    58
 74
    57
  0
VERTEX
  5
127
330
D
100
AcDbEntity
  8
0
 62
     0
100
AcDbFaceRecord
 10
0.0
 20
0.0
 30
0.0
 70
   128
 71
     8
 72
     9
 73
    59
 74
    58
  0
VERTEX
  5
128
330
D
100
AcDbEntity
  8
0
 62
     0
100
AcDbFaceRecord
 10
0.0
 20
0.0
 30
0.0
 70
   128
 71
     9
 72
    10
 73
    60
 74
    59
  0
VERTEX
  5
129
330
D
100
AcDbEntity
  8
0
 62
     0
100
AcDbFaceRecord
 10
0.0
 20
0.0
 30
0.0
 70
   128
 71
    10
 72
    11
 73
    61
 74
    60
  0
VERTEX
  5
12A
330
D
100
AcDbEntity
  8
0
 62
     0
100
AcDbFaceRecord
 10
0.0
 20
0.0
 30
0.0
 70
   128
 71
    11
 72
    12
 73
    62
 74
    61
  0
VERTEX
  5
12B
330
D
100
AcDbEntity
  8
0
 62
     0
100
AcDbFaceRecord
 10
0.0
 20
0.0
 30
0.0
 70
   128
 71
    12
 72
    13
 73
    63
 74
    62
  0
VERTEX
  5
12C
330
D
100
AcDbEntity
  8
0
 62
     0
100
AcDbFaceRecord
 10
0.0
 20
0.0
 30
0.0
 70
   128
 71
    13
 72
    14
 73
    64
 74
    63
  0
VERTEX
  5
12D
330
D
100
AcDbEntity
  8
0
 62
     0
100
AcDbFaceRecord
 10
0.0
 20
0.0
 30
0.0
 70
   128
 71
    14
 72
    15
 73
    65
 74
    64
  0
VERTEX
  5
12E
330
D
100
AcDbEntity
  8
0
 62
     0
100
AcDbFaceRecord
 10
0.0
 20
0.0
 30
0.0
 70
   128
 71
    15
 72
    16
 73
    66
 74
    65
  0
VERTEX
  5
12F
330
D
100
AcDbEntity
  8
0
 62
     0
100
AcDbFaceRecord
 10
0.0
 20
0.0
 30
0.0
 70
   128
 71
    16
 72
    17
 73
    67
 74
    66
  0
VERTEX
  5
130
330
D
100
AcDbEntity
  8
0
 62
     0
100
AcDbFaceRecord
 10
0.0
 20
0.0
 30
0.0
 70
   128
 71
    17
 72
    18
 73
    68
 74
    67
  0
VERTEX
  5
131
330
D
100
AcDbEntity
  8
0
 62
     0
100
AcDbFaceRecord
 10
0.0
 20
0.0
 30
0.0
 70
   128
 71
    18
 72
    19
 73
    69
 74
    68
  0
VERTEX
  5
132
330
D
100
AcDbEntity
  8
0
 62
     0
100
AcDbFaceRecord
 10
0.0
 20
0.0
 30
0.0
 70
   128
 71
    19
 72
    20
 73
    70
 74
    69
  0
VERTEX
  5
133
330
D
100
AcDbEntity
  8
0
 62
     0
100
AcDbFaceRecord
 10
0.0
 20
0.0
 30
0.0
 70
   128
 71
    20
 72
    21
 73
    71
 74
    70
  0
VERTEX
  5
134
330
D
100
AcDbEntity
  8
0
 62
     0
100
AcDbFaceRecord
 10
0.0
 20
0.0
 30
0.0
 70
   128
 71
    21
 72
    22
 73
    72
 74
    71
  0
VERTEX
  5
135
330
D
100
AcDbEntity
  8
0
 62
     0
100
AcDbFaceRecord
 10
0.0
 20
0.0
 30
0.0
 70
   128
 71
    22
 72
    23
 73
    73
 74
    72
  0
VERTEX
  5
136
330
D
100
AcDbEntity
  8
0
 62
     0
100
AcDbFaceRecord
 10
0.0
 20
0.0
 30
0.0
 70
   128
 71
    23
 72
    24
 73
    74
 74
    73
  0
VERTEX
  5
137
330
D
100
AcDbEntity
  8
0
 62
     0
100
AcDbFaceRecord
 10
0.0
 20
0.0
 30
0.0
 70
   128
 71
    24
 72
    25
 73
    75
 74
    74
  0
VERTEX
  5
138
330
D
100
AcDbEntity
  8
0
 62
     0
100
AcDbFaceRecord
 10
0.0
 20
0.0
 30
0.0
 70
   128
 71
    25
 72
    26
 73
    76
 74
    75
  0
VERTEX
  5
139
330
D
100
AcDbEntity
  8
0
 62
     0
100
AcDbFaceRecord
 10
0.0
 20
0.0
 30
0.0
 70
   128
 71
    26
 72
    27
 73
    77
 74
    76
  0
VERTEX
  5
13A
330
D
100
AcDbEntity
  8
0
 62
     0
100
AcDbFaceRecord
 10
0.0
 20
0.0
 30
0.0
 70
   128
 71
    27
 72
    28
 73
    78
 74
    77
  0
VERTEX
  5
13B
330
D
100
AcDbEntity
  8
0
 62
     0
100
AcDbFaceRecord
 10
0.0
 20
0.0
 30
0.0
 70
   128
 71
    28
 72
    29
 73
    79
 74
    78
  0
VERTEX
  5
13C
330
D
100
AcDbEntity
  8
0
 62
     0
100
AcDbFaceRecord
 10
0.0
 20
0.0
 30
0.0
 70
   128
 71
    29
 72
    30
 73
    80
 74
    79
  0
VERTEX
  5
13D
330
D
100
AcDbEntity
  8
0
 62
     0
100
AcDbFaceRecord
 10
0.0
 20
0.0
 30
0.0
 70
   128
 71
    30
 72
    31
 73
    81
 74
    80
  0
VERTEX
  5
13E
330
D
100
AcDbEntity
  8
0
 62
     0
100
AcDbFaceRecord
 10
0.0
 20
0.0
 30
0.0
 70
   128
 71
    31
 72
    32
 73
    82
 74
    81
  0
VERTEX
  5
13F
330
D
100
AcDbEntity
  8
0
 62
     0
100
AcDbFaceRecord
 10
0.0
 20
0.0
 30
0.0
 70
   128
 71
    32
 72
    33
 73
    83
 74
    82
  0
VERTEX
  5
140
330
D
100
AcDbEntity
  8
0
 62
     0
100
AcDbFaceRecord
 10
0.0
 20
0.0
 30
0.0
 70
   128
 71
    33
 72
    34
 73
    84
 74
    83
  0
VERTEX
  5
141
330
D
100
AcDbEntity
  8
0
 62
     0
100
AcDbFaceRecord
 10
0.0
 20
0.0
 30
0.0
 70
   128
 71
    34
 72
    35
 73
    85
 74
    84
  0
VERTEX
  5
142
330
D
100
AcDbEntity
  8
0
 62
     0
100
AcDbFaceRecord
 10
0.0
 20
0.0
 30
0.0
 70
   128
 71
    35
 72
    36
 73
    86
 74
    85
  0
VERTEX
  5
143
330
D
100
AcDbEntity
  8
0
 62
     0
100
AcDbFaceRecord
 10
0.0
 20
0.0
 30
0.0
 70
   128
 71
    36
 72
    37
 73
    87
 74
    86
  0
VERTEX
  5
144
330
D
100
AcDbEntity
  8
0
 62
     0
100
AcDbFaceRecord
 10
0.0
 20
0.0
 30
0.0
 70
   128
 71
    37
 72
    38
 73
    88
 74
    87
  0
VERTEX
  5
145
330
D
100
AcDbEntity
  8
0
 62
     0
100
AcDbFaceRecord
 10
0.0
 20
0.0
 30
0.0
 70
   128
 71
    38
 72
    39
 73
    89
 74
    88
  0
VERTEX
  5
146
330
D
100
AcDbEntity
  8
0
 62
     0
100
AcDbFaceRecord
 10
0.0
 20
0.0
 30
0.0
 70
   128
 71
    39
 72
    40
 73
    90
 74
    89
  0
VERTEX
  5
147
330
D
100
AcDbEntity
  8
0
 62
     0
100
AcDbFaceRecord
 10
0.0
 20
0.0
 30
0.0
 70
   128
 71
    40
 72
    41
 73
    91
 74
    90
  0
VERTEX
  5
148
330
D
100
AcDbEntity
  8
0
 62
     0
100
AcDbFaceRecord
 10
0.0
 20
0.0
 30
0.0
 70
   128
 71
    41
 72
    42
 73
    92
 74
    91
  0
VERTEX
  5
149
330
D
100
AcDbEntity
  8
0
 62
     0
100
AcDbFaceRecord
 10
0.0
 20
0.0
 30
0.0
 70
   128
 71
    42
 72
    43
 73
    93
 74
    92
  0
VERTEX
  5
14A
330
D
100
AcDbEntity
  8
0
 62
     0
100
AcDbFaceRecord
 10
0.0
 20
0.0
 30
0.0
 70
   128
 71
    43
 72
    44
 73
    94
 74
    93
  0
VERTEX
  5
14B
330
D
100
AcDbEntity
  8
0
 62
     0
100
AcDbFaceRecord
 10
0.0
 20
0.0
 30
0.0
 70
   128
 71
    44
 72
    45
 73
    95
 74
    94
  0
VERTEX
  5
14C
330
D
100
AcDbEntity
  8
0
 62
     0
100
AcDbFaceRecord
 10
0.0
 20
0.0
 30
0.0
 70
   128
 71
    45
 72
    46
 73
    96
 74
    95
  0
VERTEX
  5
14D
330
D
100
AcDbEntity
  8
0
 62
     0
100
AcDbFaceRecord
 10
0.0
 20
0.0
 30
0.0
 70
   128
 71
    46
 72
    47
 73
    97
 74
    96
  0
VERTEX
  5
14E
330
D
100
AcDbEntity
  8
0
 62
     0
100
AcDbFaceRecord
 10
0.0
 20
0.0
 30
0.0
 70
   128
 71
    47
 72
    48
 73
    98
 74
    97
  0
VERTEX
  5
14F
330
D
100
AcDbEntity
  8
0
 62
     0
100
AcDbFaceRecord
 10
0.0
 20
0.0
 30
0.0
 70
   128
 71
    48
 72
    49
 73
    99
 74
    98
  0
VERTEX
  5
150
330
D
100
AcDbEntity
  8
0
 62
     0
100
AcDbFaceRecord
 10
0.0
 20
0.0
 30
0.0
 70
   128
 71
    49
 72
    50
 73
   100
 74
    99
  0
SEQEND
  5
7D
330
D
100
AcDbEntity
  8
HOLME
  0
LWPOLYLINE
  5
E
330
4E
100
AcDbEntity
  8
HOLME
100
AcDbPolyline
 90
       50
 70
     0
 43
0.0
 38
2089.999999999996
 10
0.0
 20
143.3333333333887
 10
-222.999549997549
 20
143.3333333333887
 10
-222.999549997549
 20
326.6666666667221
 10
-445.9995499975487
 20
326.6666666667221
 10
-445.9995499975487
 20
510.0000000000554
 10
-668.999549997549
 20
510.0000000000554
 10
-668.999549997549
 20
693.3333333333887
 10
-891.9995499975487
 20
693.3333333333887
 10
-891.9995499975487
 20
876.6666666667221
 10
-1114.999549997549
 20
876.6666666667221
 10
-1114.999549997549
 20
1060.000000000055
 10
-1337.999549997549
 20
1060.000000000055
 10
-1337.999549997549
 20
1243.333333333389
 10
-1560.999549997549
 20
1243.333333333389
 10
-1560.999549997549
 20
1426.666666666722
 10
-1783.999549997549
 20
1426.666666666722
 10
-1783.999549997549
 20
1610.000000000055
 10
-2006.999549997549
 20
1610.000000000055
 10
-2006.999549997549
 20
1793.333333333388
 10
-2229.999549997549
 20
1793.333333333388
 10
-2229.999549997549
 20
1976.666666666722
 10
-2452.999549997549
 20
1976.666666666722
 10
-2452.999549997549
 20
2160.000000000055
 10
-2675.999549997549
 20
2160.000000000055
 10
-2675.999549997549
 20
2343.333333333389
 10
-2898.999549997549
 20
2343.333333333389
 10
-2898.999549997549
 20
2526.666666666722
 10
-3121.999549997549
 20
2526.666666666722
 10
-3121.999549997549
 20
2710.000000000056
 10
-3315.0
 20
2710.000000000056
 10
-3315.0
 20
2558.324798650809
 10
-3315.0
 20
2710.000000000056
 10
-3315.0
 20
2558.324798650809
 10
-2976.245874728454
 20
2279.827386245201
 10
-2753.245874728454
 20
2096.494052911868
 10
-2530.245874728454
 20
1913.160719578534
 10
-2307.245874728454
 20
1729.827386245201
 10
-2084.245874728454
 20
1546.494052911868
 10
-1861.245874728454
 20
1363.160719578534
 10
-1638.245874728453
 20
1179.827386245201
 10
-1415.245874728454
 20
996.4940529118679
 10
-1192.245874728453
 20
813.1607195785347
 10
-969.245874728453
 20
629.8273862452013
 10
-746.2458747284534
 20
446.4940529118679
 10
-523.2458747284532
 20
263.1607195785346
 10
-203.1467449139033
 20
0.0000000000553527
 10
-203.1467449139033
 20
0.0000000000553527
 10
0.0
 20
0.0000000000553527
 10
0.0
 20
0.0000000000553527
 10
0.0
 20
143.3333333333887
210
0.0
220
1.0
230
0.0
  0
POLYLINE
  5
F
330
4E
100
AcDbEntity
  8
HOLME
100
AcDbPolyFaceMesh
 66
     1
 10
0.0
 20
0.0
 30
0.0
 70
    64
 71
   100
 72
   111
  0
VERTEX
  5
152
330
F
100
AcDbEntity
  8
0
100
AcDbVertex
100
AcDbPolyFaceMeshVertex
 10
0.0
 20
2089.999999999996
 30
143.3333333333887
 70
   192
  0
VERTEX
  5
153
330
F
100
AcDbEntity
  8
0
100
AcDbVertex
100
AcDbPolyFaceMeshVertex
 10
222.999549997549
 20
2089.999999999996
 30
143.3333333333887
 70
   192
  0
VERTEX
  5
154
330
F
100
AcDbEntity
  8
0
100
AcDbVertex
100
AcDbPolyFaceMeshVertex
 10
222.999549997549
 20
2089.999999999991
 30
326.6666666667221
 70
   192
  0
VERTEX
  5
155
330
F
100
AcDbEntity
  8
0
100
AcDbVertex
100
AcDbPolyFaceMeshVertex
 10
445.9995499975487
 20
2089.999999999991
 30
326.6666666667221
 70
   192
  0
VERTEX
  5
156
330
F
100
AcDbEntity
  8
0
100
AcDbVertex
100
AcDbPolyFaceMeshVertex
 10
445.9995499975487
 20
2089.999999999986
 30
510.0000000000554
 70
   192
  0
VERTEX
  5
157
330
F
100
AcDbEntity
  8
0
100
AcDbVertex
100
AcDbPolyFaceMeshVertex
 10
668.999549997549
 20
2089.999999999986
 30
510.0000000000554
 70
   192
  0
VERTEX
  5
158
330
F
100
AcDbEntity
  8
0
100
AcDbVertex
100
AcDbPolyFaceMeshVertex
 10
668.999549997549
 20
2089.999999999982
 30
693.3333333333887
 70
   192
  0
VERTEX
  5
159
330
F
100
AcDbEntity
  8
0
100
AcDbVertex
100
AcDbPolyFaceMeshVertex
 10
891.9995499975487
 20
2089.999999999982
 30
693.3333333333887
 70
   192
  0
VERTEX
  5
15A
330
F
100
AcDbEntity
  8
0
100
AcDbVertex
100
AcDbPolyFaceMeshVertex
 10
891.9995499975487
 20
2089.999999999977
 30
876.6666666667221
 70
   192
  0
VERTEX
  5
15B
330
F
100
AcDbEntity
  8
0
100
AcDbVertex
100
AcDbPolyFaceMeshVertex
 10
1114.999549997549
 20
2089.999999999977
 30
876.6666666667221
 70
   192
  0
VERTEX
  5
15C
330
F
100
AcDbEntity
  8
0
100
AcDbVertex
100
AcDbPolyFaceMeshVertex
 10
1114.999549997549
 20
2089.999999999972
 30
1060.000000000055
 70
   192
  0
VERTEX
  5
15D
330
F
100
AcDbEntity
  8
0
100
AcDbVertex
100
AcDbPolyFaceMeshVertex
 10
1337.999549997549
 20
2089.999999999972
 30
1060.000000000055
 70
   192
  0
VERTEX
  5
15E
330
F
100
AcDbEntity
  8
0
100
AcDbVertex
100
AcDbPolyFaceMeshVertex
 10
1337.999549997549
 20
2089.999999999967
 30
1243.333333333389
 70
   192
  0
VERTEX
  5
15F
330
F
100
AcDbEntity
  8
0
100
AcDbVertex
100
AcDbPolyFaceMeshVertex
 10
1560.999549997549
 20
2089.999999999967
 30
1243.333333333389
 70
   192
  0
VERTEX
  5
160
330
F
100
AcDbEntity
  8
0
100
AcDbVertex
100
AcDbPolyFaceMeshVertex
 10
1560.999549997549
 20
2089.999999999962
 30
1426.666666666722
 70
   192
  0
VERTEX
  5
161
330
F
100
AcDbEntity
  8
0
100
AcDbVertex
100
AcDbPolyFaceMeshVertex
 10
1783.999549997549
 20
2089.999999999962
 30
1426.666666666722
 70
   192
  0
VERTEX
  5
162
330
F
100
AcDbEntity
  8
0
100
AcDbVertex
100
AcDbPolyFaceMeshVertex
 10
1783.999549997549
 20
2089.999999999957
 30
1610.000000000055
 70
   192
  0
VERTEX
  5
163
330
F
100
AcDbEntity
  8
0
100
AcDbVertex
100
AcDbPolyFaceMeshVertex
 10
2006.999549997549
 20
2089.999999999957
 30
1610.000000000055
 70
   192
  0
VERTEX
  5
164
330
F
100
AcDbEntity
  8
0
100
AcDbVertex
100
AcDbPolyFaceMeshVertex
 10
2006.999549997549
 20
2089.999999999953
 30
1793.333333333388
 70
   192
  0
VERTEX
  5
165
330
F
100
AcDbEntity
  8
0
100
AcDbVertex
100
AcDbPolyFaceMeshVertex
 10
2229.999549997549
 20
2089.999999999953
 30
1793.333333333388
 70
   192
  0
VERTEX
  5
166
330
F
100
AcDbEntity
  8
0
100
AcDbVertex
100
AcDbPolyFaceMeshVertex
 10
2229.999549997549
 20
2089.999999999948
 30
1976.666666666722
 70
   192
  0
VERTEX
  5
167
330
F
100
AcDbEntity
  8
0
100
AcDbVertex
100
AcDbPolyFaceMeshVertex
 10
2452.999549997549
 20
2089.999999999948
 30
1976.666666666722
 70
   192
  0
VERTEX
  5
168
330
F
100
AcDbEntity
  8
0
100
AcDbVertex
100
AcDbPolyFaceMeshVertex
 10
2452.999549997549
 20
2089.999999999943
 30
2160.000000000055
 70
   192
  0
VERTEX
  5
169
330
F
100
AcDbEntity
  8
0
100
AcDbVertex
100
AcDbPolyFaceMeshVertex
 10
2675.999549997549
 20
2089.999999999943
 30
2160.000000000055
 70
   192
  0
VERTEX
  5
16A
330
F
100
AcDbEntity
  8
0
100
AcDbVertex
100
AcDbPolyFaceMeshVertex
 10
2675.999549997549
 20
2089.999999999938
 30
2343.333333333389
 70
   192
  0
VERTEX
  5
16B
330
F
100
AcDbEntity
  8
0
100
AcDbVertex
100
AcDbPolyFaceMeshVertex
 10
2898.999549997549
 20
2089.999999999938
 30
2343.333333333389
 70
   192
  0
VERTEX
  5
16C
330
F
100
AcDbEntity
  8
0
100
AcDbVertex
100
AcDbPolyFaceMeshVertex
 10
2898.999549997549
 20
2089.999999999933
 30
2526.666666666722
 70
   192
  0
VERTEX
  5
16D
330
F
100
AcDbEntity
  8
0
100
AcDbVertex
100
AcDbPolyFaceMeshVertex
 10
3121.999549997549
 20
2089.999999999933
 30
2526.666666666722
 70
   192
  0
VERTEX
  5
16E
330
F
100
AcDbEntity
  8
0
100
AcDbVertex
100
AcDbPolyFaceMeshVertex
 10
3121.999549997549
 20
2089.999999999928
 30
2710.000000000056
 70
   192
  0
VERTEX
  5
16F
330
F
100
AcDbEntity
  8
0
100
AcDbVertex
100
AcDbPolyFaceMeshVertex
 10
3315.0
 20
2089.999999999928
 30
2710.000000000056
 70
   192
  0
VERTEX
  5
170
330
F
100
AcDbEntity
  8
0
100
AcDbVertex
100
AcDbPolyFaceMeshVertex
 10
3315.0
 20
2089.999999999932
 30
2558.324798650809
 70
   192
  0
VERTEX
  5
171
330
F
100
AcDbEntity
  8
0
100
AcDbVertex
100
AcDbPolyFaceMeshVertex
 10
3315.0
 20
2089.999999999928
 30
2710.000000000056
 70
   192
  0
VERTEX
  5
172
330
F
100
AcDbEntity
  8
0
100
AcDbVertex
100
AcDbPolyFaceMeshVertex
 10
3315.0
 20
2089.999999999932
 30
2558.324798650809
 70
   192
  0
VERTEX
  5
173
330
F
100
AcDbEntity
  8
0
100
AcDbVertex
100
AcDbPolyFaceMeshVertex
 10
2976.245874728454
 20
2089.99999999994
 30
2279.827386245201
 70
   192
  0
VERTEX
  5
174
330
F
100
AcDbEntity
  8
0
100
AcDbVertex
100
AcDbPolyFaceMeshVertex
 10
2753.245874728454
 20
2089.999999999945
 30
2096.494052911868
 70
   192
  0
VERTEX
  5
175
330
F
100
AcDbEntity
  8
0
100
AcDbVertex
100
AcDbPolyFaceMeshVertex
 10
2530.245874728454
 20
2089.99999999995
 30
1913.160719578534
 70
   192
  0
VERTEX
  5
176
330
F
100
AcDbEntity
  8
0
100
AcDbVertex
100
AcDbPolyFaceMeshVertex
 10
2307.245874728454
 20
2089.999999999954
 30
1729.827386245201
 70
   192
  0
VERTEX
  5
177
330
F
100
AcDbEntity
  8
0
100
AcDbVertex
100
AcDbPolyFaceMeshVertex
 10
2084.245874728454
 20
2089.999999999959
 30
1546.494052911868
 70
   192
  0
VERTEX
  5
178
330
F
100
AcDbEntity
  8
0
100
AcDbVertex
100
AcDbPolyFaceMeshVertex
 10
1861.245874728454
 20
2089.999999999964
 30
1363.160719578534
 70
   192
  0
VERTEX
  5
179
330
F
100
AcDbEntity
  8
0
100
AcDbVertex
100
AcDbPolyFaceMeshVertex
 10
1638.245874728453
 20
2089.999999999969
 30
1179.827386245201
 70
   192
  0
VERTEX
  5
17A
330
F
100
AcDbEntity
  8
0
100
AcDbVertex
100
AcDbPolyFaceMeshVertex
 10
1415.245874728454
 20
2089.999999999974
 30
996.4940529118679
 70
   192
  0
VERTEX
  5
17B
330
F
100
AcDbEntity
  8
0
100
AcDbVertex
100
AcDbPolyFaceMeshVertex
 10
1192.245874728453
 20
2089.999999999979
 30
813.1607195785347
 70
   192
  0
VERTEX
  5
17C
330
F
100
AcDbEntity
  8
0
100
AcDbVertex
100
AcDbPolyFaceMeshVertex
 10
969.245874728453
 20
2089.999999999983
 30
629.8273862452013
 70
   192
  0
VERTEX
  5
17D
330
F
100
AcDbEntity
  8
0
100
AcDbVertex
100
AcDbPolyFaceMeshVertex
 10
746.2458747284534
 20
2089.999999999988
 30
446.4940529118679
 70
   192
  0
VERTEX
  5
17E
330
F
100
AcDbEntity
  8
0
100
AcDbVertex
100
AcDbPolyFaceMeshVertex
 10
523.2458747284532
 20
2089.999999999993
 30
263.1607195785346
 70
   192
  0
VERTEX
  5
17F
330
F
100
AcDbEntity
  8
0
100
AcDbVertex
100
AcDbPolyFaceMeshVertex
 10
203.1467449139033
 20
2090.0
 30
0.0000000000553527
 70
   192
  0
VERTEX
  5
180
330
F
100
AcDbEntity
  8
0
100
AcDbVertex
100
AcDbPolyFaceMeshVertex
 10
203.1467449139033
 20
2090.0
 30
0.0000000000553527
 70
   192
  0
VERTEX
  5
181
330
F
100
AcDbEntity
  8
0
100
AcDbVertex
100
AcDbPolyFaceMeshVertex
 10
0.0
 20
2090.0
 30
0.0000000000553527
 70
   192
  0
VERTEX
  5
182
330
F
100
AcDbEntity
  8
0
100
AcDbVertex
100
AcDbPolyFaceMeshVertex
 10
0.0
 20
2090.0
 30
0.0000000000553527
 70
   192
  0
VERTEX
  5
183
330
F
100
AcDbEntity
  8
0
100
AcDbVertex
100
AcDbPolyFaceMeshVertex
 10
0.0
 20
2089.999999999996
 30
143.3333333333887
 70
   192
  0
VERTEX
  5
184
330
F
100
AcDbEntity
  8
0
100
AcDbVertex
100
AcDbPolyFaceMeshVertex
 10
0.0
 20
2074.999999999996
 30
143.3333333333883
 70
   192
  0
VERTEX
  5
185
330
F
100
AcDbEntity
  8
0
100
AcDbVertex
100
AcDbPolyFaceMeshVertex
 10
222.999549997549
 20
2074.999999999996
 30
143.3333333333883
 70
   192
  0
VERTEX
  5
186
330
F
100
AcDbEntity
  8
0
100
AcDbVertex
100
AcDbPolyFaceMeshVertex
 10
222.999549997549
 20
2074.999999999991
 30
326.6666666667217
 70
   192
  0
VERTEX
  5
187
330
F
100
AcDbEntity
  8
0
100
AcDbVertex
100
AcDbPolyFaceMeshVertex
 10
445.9995499975487
 20
2074.999999999991
 30
326.6666666667217
 70
   192
  0
VERTEX
  5
188
330
F
100
AcDbEntity
  8
0
100
AcDbVertex
100
AcDbPolyFaceMeshVertex
 10
445.9995499975487
 20
2074.999999999986
 30
510.000000000055
 70
   192
  0
VERTEX
  5
189
330
F
100
AcDbEntity
  8
0
100
AcDbVertex
100
AcDbPolyFaceMeshVertex
 10
668.999549997549
 20
2074.999999999986
 30
510.000000000055
 70
   192
  0
VERTEX
  5
18A
330
F
100
AcDbEntity
  8
0
100
AcDbVertex
100
AcDbPolyFaceMeshVertex
 10
668.999549997549
 20
2074.999999999982
 30
693.3333333333883
 70
   192
  0
VERTEX
  5
18B
330
F
100
AcDbEntity
  8
0
100
AcDbVertex
100
AcDbPolyFaceMeshVertex
 10
891.9995499975487
 20
2074.999999999982
 30
693.3333333333883
 70
   192
  0
VERTEX
  5
18C
330
F
100
AcDbEntity
  8
0
100
AcDbVertex
100
AcDbPolyFaceMeshVertex
 10
891.9995499975487
 20
2074.999999999977
 30
876.6666666667217
 70
   192
  0
VERTEX
  5
18D
330
F
100
AcDbEntity
  8
0
100
AcDbVertex
100
AcDbPolyFaceMeshVertex
 10
1114.999549997549
 20
2074.999999999977
 30
876.6666666667217
 70
   192
  0
VERTEX
  5
18E
330
F
100
AcDbEntity
  8
0
100
AcDbVertex
100
AcDbPolyFaceMeshVertex
 10
1114.999549997549
 20
2074.999999999972
 30
1060.000000000055
 70
   192
  0
VERTEX
  5
18F
330
F
100
AcDbEntity
  8
0
100
AcDbVertex
100
AcDbPolyFaceMeshVertex
 10
1337.999549997549
 20
2074.999999999972
 30
1060.000000000055
 70
   192
  0
VERTEX
  5
190
330
F
100
AcDbEntity
  8
0
100
AcDbVertex
100
AcDbPolyFaceMeshVertex
 10
1337.999549997549
 20
2074.999999999967
 30
1243.333333333388
 70
   192
  0
VERTEX
  5
191
330
F
100
AcDbEntity
  8
0
100
AcDbVertex
100
AcDbPolyFaceMeshVertex
 10
1560.999549997549
 20
2074.999999999967
 30
1243.333333333388
 70
   192
  0
VERTEX
  5
192
330
F
100
AcDbEntity
  8
0
100
AcDbVertex
100
AcDbPolyFaceMeshVertex
 10
1560.999549997549
 20
2074.999999999962
 30
1426.666666666722
 70
   192
  0
VERTEX
  5
193
330
F
100
AcDbEntity
  8
0
100
AcDbVertex
100
AcDbPolyFaceMeshVertex
 10
1783.999549997549
 20
2074.999999999962
 30
1426.666666666722
 70
   192
  0
VERTEX
  5
194
330
F
100
AcDbEntity
  8
0
100
AcDbVertex
100
AcDbPolyFaceMeshVertex
 10
1783.999549997549
 20
2074.999999999957
 30
1610.000000000055
 70
   192
  0
VERTEX
  5
195
330
F
100
AcDbEntity
  8
0
100
AcDbVertex
100
AcDbPolyFaceMeshVertex
 10
2006.999549997549
 20
2074.999999999957
 30
1610.000000000055
 70
   192
  0
VERTEX
  5
196
330
F
100
AcDbEntity
  8
0
100
AcDbVertex
100
AcDbPolyFaceMeshVertex
 10
2006.999549997549
 20
2074.999999999953
 30
1793.333333333388
 70
   192
  0
VERTEX
  5
197
330
F
100
AcDbEntity
  8
0
100
AcDbVertex
100
AcDbPolyFaceMeshVertex
 10
2229.999549997549
 20
2074.999999999953
 30
1793.333333333388
 70
   192
  0
VERTEX
  5
198
330
F
100
AcDbEntity
  8
0
100
AcDbVertex
100
AcDbPolyFaceMeshVertex
 10
2229.999549997549
 20
2074.999999999948
 30
1976.666666666721
 70
   192
  0
VERTEX
  5
199
330
F
100
AcDbEntity
  8
0
100
AcDbVertex
100
AcDbPolyFaceMeshVertex
 10
2452.999549997549
 20
2074.999999999948
 30
1976.666666666721
 70
   192
  0
VERTEX
  5
19A
330
F
100
AcDbEntity
  8
0
100
AcDbVertex
100
AcDbPolyFaceMeshVertex
 10
2452.999549997549
 20
2074.999999999943
 30
2160.000000000055
 70
   192
  0
VERTEX
  5
19B
330
F
100
AcDbEntity
  8
0
100
AcDbVertex
100
AcDbPolyFaceMeshVertex
 10
2675.999549997549
 20
2074.999999999943
 30
2160.000000000055
 70
   192
  0
VERTEX
  5
19C
330
F
100
AcDbEntity
  8
0
100
AcDbVertex
100
AcDbPolyFaceMeshVertex
 10
2675.999549997549
 20
2074.999999999938
 30
2343.333333333388
 70
   192
  0
VERTEX
  5
19D
330
F
100
AcDbEntity
  8
0
100
AcDbVertex
100
AcDbPolyFaceMeshVertex
 10
2898.999549997549
 20
2074.999999999938
 30
2343.333333333388
 70
   192
  0
VERTEX
  5
19E
330
F
100
AcDbEntity
  8
0
100
AcDbVertex
100
AcDbPolyFaceMeshVertex
 10
2898.999549997549
 20
2074.999999999933
 30
2526.666666666722
 70
   192
  0
VERTEX
  5
19F
330
F
100
AcDbEntity
  8
0
100
AcDbVertex
100
AcDbPolyFaceMeshVertex
 10
3121.999549997549
 20
2074.999999999933
 30
2526.666666666722
 70
   192
  0
VERTEX
  5
1A0
330
F
100
AcDbEntity
  8
0
100
AcDbVertex
100
AcDbPolyFaceMeshVertex
 10
3121.999549997549
 20
2074.999999999928
 30
2710.000000000055
 70
   192
  0
VERTEX
  5
1A1
330
F
100
AcDbEntity
  8
0
100
AcDbVertex
100
AcDbPolyFaceMeshVertex
 10
3315.0
 20
2074.999999999928
 30
2710.000000000055
 70
   192
  0
VERTEX
  5
1A2
330
F
100
AcDbEntity
  8
0
100
AcDbVertex
100
AcDbPolyFaceMeshVertex
 10
3315.0
 20
2074.999999999932
 30
2558.324798650809
 70
   192
  0
VERTEX
  5
1A3
330
F
100
AcDbEntity
  8
0
100
AcDbVertex
100
AcDbPolyFaceMeshVertex
 10
3315.0
 20
2074.999999999928
 30
2710.000000000055
 70
   192
  0
VERTEX
  5
1A4
330
F
100
AcDbEntity
  8
0
100
AcDbVertex
100
AcDbPolyFaceMeshVertex
 10
3315.0
 20
2074.999999999932
 30
2558.324798650809
 70
   192
  0
VERTEX
  5
1A5
330
F
100
AcDbEntity
  8
0
100
AcDbVertex
100
AcDbPolyFaceMeshVertex
 10
2976.245874728454
 20
2074.99999999994
 30
2279.827386245201
 70
   192
  0
VERTEX
  5
1A6
330
F
100
AcDbEntity
  8
0
100
AcDbVertex
100
AcDbPolyFaceMeshVertex
 10
2753.245874728454
 20
2074.999999999945
 30
2096.494052911867
 70
   192
  0
VERTEX
  5
1A7
330
F
100
AcDbEntity
  8
0
100
AcDbVertex
100
AcDbPolyFaceMeshVertex
 10
2530.245874728454
 20
2074.99999999995
 30
1913.160719578534
 70
   192
  0
VERTEX
  5
1A8
330
F
100
AcDbEntity
  8
0
100
AcDbVertex
100
AcDbPolyFaceMeshVertex
 10
2307.245874728454
 20
2074.999999999954
 30
1729.827386245201
 70
   192
  0
VERTEX
  5
1A9
330
F
100
AcDbEntity
  8
0
100
AcDbVertex
100
AcDbPolyFaceMeshVertex
 10
2084.245874728454
 20
2074.999999999959
 30
1546.494052911867
 70
   192
  0
VERTEX
  5
1AA
330
F
100
AcDbEntity
  8
0
100
AcDbVertex
100
AcDbPolyFaceMeshVertex
 10
1861.245874728454
 20
2074.999999999964
 30
1363.160719578534
 70
   192
  0
VERTEX
  5
1AB
330
F
100
AcDbEntity
  8
0
100
AcDbVertex
100
AcDbPolyFaceMeshVertex
 10
1638.245874728453
 20
2074.999999999969
 30
1179.827386245201
 70
   192
  0
VERTEX
  5
1AC
330
F
100
AcDbEntity
  8
0
100
AcDbVertex
100
AcDbPolyFaceMeshVertex
 10
1415.245874728454
 20
2074.999999999974
 30
996.4940529118675
 70
   192
  0
VERTEX
  5
1AD
330
F
100
AcDbEntity
  8
0
100
AcDbVertex
100
AcDbPolyFaceMeshVertex
 10
1192.245874728453
 20
2074.999999999979
 30
813.1607195785342
 70
   192
  0
VERTEX
  5
1AE
330
F
100
AcDbEntity
  8
0
100
AcDbVertex
100
AcDbPolyFaceMeshVertex
 10
969.245874728453
 20
2074.999999999983
 30
629.8273862452008
 70
   192
  0
VERTEX
  5
1AF
330
F
100
AcDbEntity
  8
0
100
AcDbVertex
100
AcDbPolyFaceMeshVertex
 10
746.2458747284534
 20
2074.999999999988
 30
446.4940529118675
 70
   192
  0
VERTEX
  5
1B0
330
F
100
AcDbEntity
  8
0
100
AcDbVertex
100
AcDbPolyFaceMeshVertex
 10
523.2458747284532
 20
2074.999999999993
 30
263.1607195785342
 70
   192
  0
VERTEX
  5
1B1
330
F
100
AcDbEntity
  8
0
100
AcDbVertex
100
AcDbPolyFaceMeshVertex
 10
203.1467449139033
 20
2075.0
 30
0.0000000000549554
 70
   192
  0
VERTEX
  5
1B2
330
F
100
AcDbEntity
  8
0
100
AcDbVertex
100
AcDbPolyFaceMeshVertex
 10
203.1467449139033
 20
2075.0
 30
0.0000000000549554
 70
   192
  0
VERTEX
  5
1B3
330
F
100
AcDbEntity
  8
0
100
AcDbVertex
100
AcDbPolyFaceMeshVertex
 10
0.0
 20
2075.0
 30
0.0000000000549554
 70
   192
  0
VERTEX
  5
1B4
330
F
100
AcDbEntity
  8
0
100
AcDbVertex
100
AcDbPolyFaceMeshVertex
 10
0.0
 20
2075.0
 30
0.0000000000549554
 70
   192
  0
VERTEX
  5
1B5
330
F
100
AcDbEntity
  8
0
100
AcDbVertex
100
AcDbPolyFaceMeshVertex
 10
0.0
 20
2074.999999999996
 30
143.3333333333883
 70
   192
  0
VERTEX
  5
1B6
330
F
100
AcDbEntity
  8
0
 62
     0
100
AcDbFaceRecord
 10
0.0
 20
0.0
 30
0.0
 70
   128
 71
    -2
 72
    -3
 73
    -4
 74
    -4
  0
VERTEX
  5
1B7
330
F
100
AcDbEntity
  8
0
 62
     0
100
AcDbFaceRecord
 10
0.0
 20
0.0
 30
0.0
 70
   128
 71
   -52
 72
   -53
 73
   -54
 74
   -54
  0
VERTEX
  5
1B8
330
F
100
AcDbEntity
  8
0
 62
     0
100
AcDbFaceRecord
 10
0.0
 20
0.0
 30
0.0
 70
   128
 71
    -4
 72
    -5
 73
    -6
 74
    -6
  0
VERTEX
  5
1B9
330
F
100
AcDbEntity
  8
0
 62
     0
100
AcDbFaceRecord
 10
0.0
 20
0.0
 30
0.0
 70
   128
 71
   -54
 72
   -55
 73
   -56
 74
   -56
  0
VERTEX
  5
1BA
330
F
100
AcDbEntity
  8
0
 62
     0
100
AcDbFaceRecord
 10
0.0
 20
0.0
 30
0.0
 70
   128
 71
    -6
 72
    -7
 73
    -8
 74
    -8
  0
VERTEX
  5
1BB
330
F
100
AcDbEntity
  8
0
 62
     0
100
AcDbFaceRecord
 10
0.0
 20
0.0
 30
0.0
 70
   128
 71
   -56
 72
   -57
 73
   -58
 74
   -58
  0
VERTEX
  5
1BC
330
F
100
AcDbEntity
  8
0
 62
     0
100
AcDbFaceRecord
 10
0.0
 20
0.0
 30
0.0
 70
   128
 71
    -8
 72
    -9
 73
   -10
 74
   -10
  0
VERTEX
  5
1BD
330
F
100
AcDbEntity
  8
0
 62
     0
100
AcDbFaceRecord
 10
0.0
 20
0.0
 30
0.0
 70
   128
 71
   -58
 72
   -59
 73
   -60
 74
   -60
  0
VERTEX
  5
1BE
330
F
100
AcDbEntity
  8
0
 62
     0
100
AcDbFaceRecord
 10
0.0
 20
0.0
 30
0.0
 70
   128
 71
   -10
 72
   -11
 73
   -12
 74
   -12
  0
VERTEX
  5
1BF
330
F
100
AcDbEntity
  8
0
 62
     0
100
AcDbFaceRecord
 10
0.0
 20
0.0
 30
0.0
 70
   128
 71
   -60
 72
   -61
 73
   -62
 74
   -62
  0
VERTEX
  5
1C0
330
F
100
AcDbEntity
  8
0
 62
     0
100
AcDbFaceRecord
 10
0.0
 20
0.0
 30
0.0
 70
   128
 71
   -12
 72
   -13
 73
   -14
 74
   -14
  0
VERTEX
  5
1C1
330
F
100
AcDbEntity
  8
0
 62
     0
100
AcDbFaceRecord
 10
0.0
 20
0.0
 30
0.0
 70
   128
 71
   -62
 72
   -63
 73
   -64
 74
   -64
  0
VERTEX
  5
1C2
330
F
100
AcDbEntity
  8
0
 62
     0
100
AcDbFaceRecord
 10
0.0
 20
0.0
 30
0.0
 70
   128
 71
   -14
 72
   -15
 73
   -16
 74
   -16
  0
VERTEX
  5
1C3
330
F
100
AcDbEntity
  8
0
 62
     0
100
AcDbFaceRecord
 10
0.0
 20
0.0
 30
0.0
 70
   128
 71
   -64
 72
   -65
 73
   -66
 74
   -66
  0
VERTEX
  5
1C4
330
F
100
AcDbEntity
  8
0
 62
     0
100
AcDbFaceRecord
 10
0.0
 20
0.0
 30
0.0
 70
   128
 71
   -16
 72
   -17
 73
   -18
 74
   -18
  0
VERTEX
  5
1C5
330
F
100
AcDbEntity
  8
0
 62
     0
100
AcDbFaceRecord
 10
0.0
 20
0.0
 30
0.0
 70
   128
 71
   -66
 72
   -67
 73
   -68
 74
   -68
  0
VERTEX
  5
1C6
330
F
100
AcDbEntity
  8
0
 62
     0
100
AcDbFaceRecord
 10
0.0
 20
0.0
 30
0.0
 70
   128
 71
   -18
 72
   -19
 73
   -20
 74
   -20
  0
VERTEX
  5
1C7
330
F
100
AcDbEntity
  8
0
 62
     0
100
AcDbFaceRecord
 10
0.0
 20
0.0
 30
0.0
 70
   128
 71
   -68
 72
   -69
 73
   -70
 74
   -70
  0
VERTEX
  5
1C8
330
F
100
AcDbEntity
  8
0
 62
     0
100
AcDbFaceRecord
 10
0.0
 20
0.0
 30
0.0
 70
   128
 71
   -20
 72
   -21
 73
   -22
 74
   -22
  0
VERTEX
  5
1C9
330
F
100
AcDbEntity
  8
0
 62
     0
100
AcDbFaceRecord
 10
0.0
 20
0.0
 30
0.0
 70
   128
 71
   -70
 72
   -71
 73
   -72
 74
   -72
  0
VERTEX
  5
1CA
330
F
100
AcDbEntity
  8
0
 62
     0
100
AcDbFaceRecord
 10
0.0
 20
0.0
 30
0.0
 70
   128
 71
   -22
 72
   -23
 73
   -24
 74
   -24
  0
VERTEX
  5
1CB
330
F
100
AcDbEntity
  8
0
 62
     0
100
AcDbFaceRecord
 10
0.0
 20
0.0
 30
0.0
 70
   128
 71
   -72
 72
   -73
 73
   -74
 74
   -74
  0
VERTEX
  5
1CC
330
F
100
AcDbEntity
  8
0
 62
     0
100
AcDbFaceRecord
 10
0.0
 20
0.0
 30
0.0
 70
   128
 71
   -24
 72
   -25
 73
   -26
 74
   -26
  0
VERTEX
  5
1CD
330
F
100
AcDbEntity
  8
0
 62
     0
100
AcDbFaceRecord
 10
0.0
 20
0.0
 30
0.0
 70
   128
 71
   -74
 72
   -75
 73
   -76
 74
   -76
  0
VERTEX
  5
1CE
330
F
100
AcDbEntity
  8
0
 62
     0
100
AcDbFaceRecord
 10
0.0
 20
0.0
 30
0.0
 70
   128
 71
   -26
 72
   -27
 73
   -28
 74
   -28
  0
VERTEX
  5
1CF
330
F
100
AcDbEntity
  8
0
 62
     0
100
AcDbFaceRecord
 10
0.0
 20
0.0
 30
0.0
 70
   128
 71
   -76
 72
   -77
 73
   -78
 74
   -78
  0
VERTEX
  5
1D0
330
F
100
AcDbEntity
  8
0
 62
     0
100
AcDbFaceRecord
 10
0.0
 20
0.0
 30
0.0
 70
   128
 71
   -28
 72
   -29
 73
   -30
 74
   -30
  0
VERTEX
  5
1D1
330
F
100
AcDbEntity
  8
0
 62
     0
100
AcDbFaceRecord
 10
0.0
 20
0.0
 30
0.0
 70
   128
 71
   -78
 72
   -79
 73
   -80
 74
   -80
  0
VERTEX
  5
1D2
330
F
100
AcDbEntity
  8
0
 62
     0
100
AcDbFaceRecord
 10
0.0
 20
0.0
 30
0.0
 70
   128
 71
   -28
 72
   -30
 73
   -31
 74
   -31
  0
VERTEX
  5
1D3
330
F
100
AcDbEntity
  8
0
 62
     0
100
AcDbFaceRecord
 10
0.0
 20
0.0
 30
0.0
 70
   128
 71
   -78
 72
   -80
 73
   -81
 74
   -81
  0
VERTEX
  5
1D4
330
F
100
AcDbEntity
  8
0
 62
     0
100
AcDbFaceRecord
 10
0.0
 20
0.0
 30
0.0
 70
   128
 71
   -47
 72
   -49
 73
   -50
 74
   -50
  0
VERTEX
  5
1D5
330
F
100
AcDbEntity
  8
0
 62
     0
100
AcDbFaceRecord
 10
0.0
 20
0.0
 30
0.0
 70
   128
 71
   -97
 72
   -99
 73
  -100
 74
  -100
  0
VERTEX
  5
1D6
330
F
100
AcDbEntity
  8
0
 62
     0
100
AcDbFaceRecord
 10
0.0
 20
0.0
 30
0.0
 70
   128
 71
   -47
 72
   -50
 73
    -2
 74
    -2
  0
VERTEX
  5
1D7
330
F
100
AcDbEntity
  8
0
 62
     0
100
AcDbFaceRecord
 10
0.0
 20
0.0
 30
0.0
 70
   128
 71
   -97
 72
  -100
 73
   -52
 74
   -52
  0
VERTEX
  5
1D8
330
F
100
AcDbEntity
  8
0
 62
     0
100
AcDbFaceRecord
 10
0.0
 20
0.0
 30
0.0
 70
   128
 71
   -47
 72
    -2
 73
    -4
 74
    -4
  0
VERTEX
  5
1D9
330
F
100
AcDbEntity
  8
0
 62
     0
100
AcDbFaceRecord
 10
0.0
 20
0.0
 30
0.0
 70
   128
 71
   -97
 72
   -52
 73
   -54
 74
   -54
  0
VERTEX
  5
1DA
330
F
100
AcDbEntity
  8
0
 62
     0
100
AcDbFaceRecord
 10
0.0
 20
0.0
 30
0.0
 70
   128
 71
   -47
 72
    -4
 73
    -6
 74
    -6
  0
VERTEX
  5
1DB
330
F
100
AcDbEntity
  8
0
 62
     0
100
AcDbFaceRecord
 10
0.0
 20
0.0
 30
0.0
 70
   128
 71
   -97
 72
   -54
 73
   -56
 74
   -56
  0
VERTEX
  5
1DC
330
F
100
AcDbEntity
  8
0
 62
     0
100
AcDbFaceRecord
 10
0.0
 20
0.0
 30
0.0
 70
   128
 71
   -47
 72
    -6
 73
    -8
 74
    -8
  0
VERTEX
  5
1DD
330
F
100
AcDbEntity
  8
0
 62
     0
100
AcDbFaceRecord
 10
0.0
 20
0.0
 30
0.0
 70
   128
 71
   -97
 72
   -56
 73
   -58
 74
   -58
  0
VERTEX
  5
1DE
330
F
100
AcDbEntity
  8
0
 62
     0
100
AcDbFaceRecord
 10
0.0
 20
0.0
 30
0.0
 70
   128
 71
   -47
 72
    -8
 73
   -10
 74
   -10
  0
VERTEX
  5
1DF
330
F
100
AcDbEntity
  8
0
 62
     0
100
AcDbFaceRecord
 10
0.0
 20
0.0
 30
0.0
 70
   128
 71
   -97
 72
   -58
 73
   -60
 74
   -60
  0
VERTEX
  5
1E0
330
F
100
AcDbEntity
  8
0
 62
     0
100
AcDbFaceRecord
 10
0.0
 20
0.0
 30
0.0
 70
   128
 71
   -47
 72
   -10
 73
   -12
 74
   -12
  0
VERTEX
  5
1E1
330
F
100
AcDbEntity
  8
0
 62
     0
100
AcDbFaceRecord
 10
0.0
 20
0.0
 30
0.0
 70
   128
 71
   -97
 72
   -60
 73
   -62
 74
   -62
  0
VERTEX
  5
1E2
330
F
100
AcDbEntity
  8
0
 62
     0
100
AcDbFaceRecord
 10
0.0
 20
0.0
 30
0.0
 70
   128
 71
   -47
 72
   -12
 73
   -14
 74
   -14
  0
VERTEX
  5
1E3
330
F
100
AcDbEntity
  8
0
 62
     0
100
AcDbFaceRecord
 10
0.0
 20
0.0
 30
0.0
 70
   128
 71
   -97
 72
   -62
 73
   -64
 74
   -64
  0
VERTEX
  5
1E4
330
F
100
AcDbEntity
  8
0
 62
     0
100
AcDbFaceRecord
 10
0.0
 20
0.0
 30
0.0
 70
   128
 71
   -47
 72
   -14
 73
   -16
 74
   -16
  0
VERTEX
  5
1E5
330
F
100
AcDbEntity
  8
0
 62
     0
100
AcDbFaceRecord
 10
0.0
 20
0.0
 30
0.0
 70
   128
 71
   -97
 72
   -64
 73
   -66
 74
   -66
  0
VERTEX
  5
1E6
330
F
100
AcDbEntity
  8
0
 62
     0
100
AcDbFaceRecord
 10
0.0
 20
0.0
 30
0.0
 70
   128
 71
   -47
 72
   -16
 73
   -18
 74
   -18
  0
VERTEX
  5
1E7
330
F
100
AcDbEntity
  8
0
 62
     0
100
AcDbFaceRecord
 10
0.0
 20
0.0
 30
0.0
 70
   128
 71
   -97
 72
   -66
 73
   -68
 74
   -68
  0
VERTEX
  5
1E8
330
F
100
AcDbEntity
  8
0
 62
     0
100
AcDbFaceRecord
 10
0.0
 20
0.0
 30
0.0
 70
   128
 71
   -47
 72
   -18
 73
   -20
 74
   -20
  0
VERTEX
  5
1E9
330
F
100
AcDbEntity
  8
0
 62
     0
100
AcDbFaceRecord
 10
0.0
 20
0.0
 30
0.0
 70
   128
 71
   -97
 72
   -68
 73
   -70
 74
   -70
  0
VERTEX
  5
1EA
330
F
100
AcDbEntity
  8
0
 62
     0
100
AcDbFaceRecord
 10
0.0
 20
0.0
 30
0.0
 70
   128
 71
   -47
 72
   -20
 73
   -22
 74
   -22
  0
VERTEX
  5
1EB
330
F
100
AcDbEntity
  8
0
 62
     0
100
AcDbFaceRecord
 10
0.0
 20
0.0
 30
0.0
 70
   128
 71
   -97
 72
   -70
 73
   -72
 74
   -72
  0
VERTEX
  5
1EC
330
F
100
AcDbEntity
  8
0
 62
     0
100
AcDbFaceRecord
 10
0.0
 20
0.0
 30
0.0
 70
   128
 71
   -47
 72
   -22
 73
   -24
 74
   -24
  0
VERTEX
  5
1ED
330
F
100
AcDbEntity
  8
0
 62
     0
100
AcDbFaceRecord
 10
0.0
 20
0.0
 30
0.0
 70
   128
 71
   -97
 72
   -72
 73
   -74
 74
   -74
  0
VERTEX
  5
1EE
330
F
100
AcDbEntity
  8
0
 62
     0
100
AcDbFaceRecord
 10
0.0
 20
0.0
 30
0.0
 70
   128
 71
   -47
 72
   -24
 73
   -26
 74
   -26
  0
VERTEX
  5
1EF
330
F
100
AcDbEntity
  8
0
 62
     0
100
AcDbFaceRecord
 10
0.0
 20
0.0
 30
0.0
 70
   128
 71
   -97
 72
   -74
 73
   -76
 74
   -76
  0
VERTEX
  5
1F0
330
F
100
AcDbEntity
  8
0
 62
     0
100
AcDbFaceRecord
 10
0.0
 20
0.0
 30
0.0
 70
   128
 71
   -47
 72
   -26
 73
   -28
 74
   -28
  0
VERTEX
  5
1F1
330
F
100
AcDbEntity
  8
0
 62
     0
100
AcDbFaceRecord
 10
0.0
 20
0.0
 30
0.0
 70
   128
 71
   -97
 72
   -76
 73
   -78
 74
   -78
  0
VERTEX
  5
1F2
330
F
100
AcDbEntity
  8
0
 62
     0
100
AcDbFaceRecord
 10
0.0
 20
0.0
 30
0.0
 70
   128
 71
   -28
 72
   -31
 73
   -47
 74
   -47
  0
VERTEX
  5
1F3
330
F
100
AcDbEntity
  8
0
 62
     0
100
AcDbFaceRecord
 10
0.0
 20
0.0
 30
0.0
 70
   128
 71
   -78
 72
   -81
 73
   -97
 74
   -97
  0
VERTEX
  5
1F4
330
F
100
AcDbEntity
  8
0
 62
     0
100
AcDbFaceRecord
 10
0.0
 20
0.0
 30
0.0
 70
   128
 71
     1
 72
     2
 73
    52
 74
    51
  0
VERTEX
  5
1F5
330
F
100
AcDbEntity
  8
0
 62
     0
100
AcDbFaceRecord
 10
0.0
 20
0.0
 30
0.0
 70
   128
 71
     2
 72
     3
 73
    53
 74
    52
  0
VERTEX
  5
1F6
330
F
100
AcDbEntity
  8
0
 62
     0
100
AcDbFaceRecord
 10
0.0
 20
0.0
 30
0.0
 70
   128
 71
     3
 72
     4
 73
    54
 74
    53
  0
VERTEX
  5
1F7
330
F
100
AcDbEntity
  8
0
 62
     0
100
AcDbFaceRecord
 10
0.0
 20
0.0
 30
0.0
 70
   128
 71
     4
 72
     5
 73
    55
 74
    54
  0
VERTEX
  5
1F8
330
F
100
AcDbEntity
  8
0
 62
     0
100
AcDbFaceRecord
 10
0.0
 20
0.0
 30
0.0
 70
   128
 71
     5
 72
     6
 73
    56
 74
    55
  0
VERTEX
  5
1F9
330
F
100
AcDbEntity
  8
0
 62
     0
100
AcDbFaceRecord
 10
0.0
 20
0.0
 30
0.0
 70
   128
 71
     6
 72
     7
 73
    57
 74
    56
  0
VERTEX
  5
1FA
330
F
100
AcDbEntity
  8
0
 62
     0
100
AcDbFaceRecord
 10
0.0
 20
0.0
 30
0.0
 70
   128
 71
     7
 72
     8
 73
    58
 74
    57
  0
VERTEX
  5
1FB
330
F
100
AcDbEntity
  8
0
 62
     0
100
AcDbFaceRecord
 10
0.0
 20
0.0
 30
0.0
 70
   128
 71
     8
 72
     9
 73
    59
 74
    58
  0
VERTEX
  5
1FC
330
F
100
AcDbEntity
  8
0
 62
     0
100
AcDbFaceRecord
 10
0.0
 20
0.0
 30
0.0
 70
   128
 71
     9
 72
    10
 73
    60
 74
    59
  0
VERTEX
  5
1FD
330
F
100
AcDbEntity
  8
0
 62
     0
100
AcDbFaceRecord
 10
0.0
 20
0.0
 30
0.0
 70
   128
 71
    10
 72
    11
 73
    61
 74
    60
  0
VERTEX
  5
1FE
330
F
100
AcDbEntity
  8
0
 62
     0
100
AcDbFaceRecord
 10
0.0
 20
0.0
 30
0.0
 70
   128
 71
    11
 72
    12
 73
    62
 74
    61
  0
VERTEX
  5
1FF
330
F
100
AcDbEntity
  8
0
 62
     0
100
AcDbFaceRecord
 10
0.0
 20
0.0
 30
0.0
 70
   128
 71
    12
 72
    13
 73
    63
 74
    62
  0
VERTEX
  5
200
330
F
100
AcDbEntity
  8
0
 62
     0
100
AcDbFaceRecord
 10
0.0
 20
0.0
 30
0.0
 70
   128
 71
    13
 72
    14
 73
    64
 74
    63
  0
VERTEX
  5
201
330
F
100
AcDbEntity
  8
0
 62
     0
100
AcDbFaceRecord
 10
0.0
 20
0.0
 30
0.0
 70
   128
 71
    14
 72
    15
 73
    65
 74
    64
  0
VERTEX
  5
202
330
F
100
AcDbEntity
  8
0
 62
     0
100
AcDbFaceRecord
 10
0.0
 20
0.0
 30
0.0
 70
   128
 71
    15
 72
    16
 73
    66
 74
    65
  0
VERTEX
  5
203
330
F
100
AcDbEntity
  8
0
 62
     0
100
AcDbFaceRecord
 10
0.0
 20
0.0
 30
0.0
 70
   128
 71
    16
 72
    17
 73
    67
 74
    66
  0
VERTEX
  5
204
330
F
100
AcDbEntity
  8
0
 62
     0
100
AcDbFaceRecord
 10
0.0
 20
0.0
 30
0.0
 70
   128
 71
    17
 72
    18
 73
    68
 74
    67
  0
VERTEX
  5
205
330
F
100
AcDbEntity
  8
0
 62
     0
100
AcDbFaceRecord
 10
0.0
 20
0.0
 30
0.0
 70
   128
 71
    18
 72
    19
 73
    69
 74
    68
  0
VERTEX
  5
206
330
F
100
AcDbEntity
  8
0
 62
     0
100
AcDbFaceRecord
 10
0.0
 20
0.0
 30
0.0
 70
   128
 71
    19
 72
    20
 73
    70
 74
    69
  0
VERTEX
  5
207
330
F
100
AcDbEntity
  8
0
 62
     0
100
AcDbFaceRecord
 10
0.0
 20
0.0
 30
0.0
 70
   128
 71
    20
 72
    21
 73
    71
 74
    70
  0
VERTEX
  5
208
330
F
100
AcDbEntity
  8
0
 62
     0
100
AcDbFaceRecord
 10
0.0
 20
0.0
 30
0.0
 70
   128
 71
    21
 72
    22
 73
    72
 74
    71
  0
VERTEX
  5
209
330
F
100
AcDbEntity
  8
0
 62
     0
100
AcDbFaceRecord
 10
0.0
 20
0.0
 30
0.0
 70
   128
 71
    22
 72
    23
 73
    73
 74
    72
  0
VERTEX
  5
20A
330
F
100
AcDbEntity
  8
0
 62
     0
100
AcDbFaceRecord
 10
0.0
 20
0.0
 30
0.0
 70
   128
 71
    23
 72
    24
 73
    74
 74
    73
  0
VERTEX
  5
20B
330
F
100
AcDbEntity
  8
0
 62
     0
100
AcDbFaceRecord
 10
0.0
 20
0.0
 30
0.0
 70
   128
 71
    24
 72
    25
 73
    75
 74
    74
  0
VERTEX
  5
20C
330
F
100
AcDbEntity
  8
0
 62
     0
100
AcDbFaceRecord
 10
0.0
 20
0.0
 30
0.0
 70
   128
 71
    25
 72
    26
 73
    76
 74
    75
  0
VERTEX
  5
20D
330
F
100
AcDbEntity
  8
0
 62
     0
100
AcDbFaceRecord
 10
0.0
 20
0.0
 30
0.0
 70
   128
 71
    26
 72
    27
 73
    77
 74
    76
  0
VERTEX
  5
20E
330
F
100
AcDbEntity
  8
0
 62
     0
100
AcDbFaceRecord
 10
0.0
 20
0.0
 30
0.0
 70
   128
 71
    27
 72
    28
 73
    78
 74
    77
  0
VERTEX
  5
20F
330
F
100
AcDbEntity
  8
0
 62
     0
100
AcDbFaceRecord
 10
0.0
 20
0.0
 30
0.0
 70
   128
 71
    28
 72
    29
 73
    79
 74
    78
  0
VERTEX
  5
210
330
F
100
AcDbEntity
  8
0
 62
     0
100
AcDbFaceRecord
 10
0.0
 20
0.0
 30
0.0
 70
   128
 71
    29
 72
    30
 73
    80
 74
    79
  0
VERTEX
  5
211
330
F
100
AcDbEntity
  8
0
 62
     0
100
AcDbFaceRecord
 10
0.0
 20
0.0
 30
0.0
 70
   128
 71
    30
 72
    31
 73
    81
 74
    80
  0
VERTEX
  5
212
330
F
100
AcDbEntity
  8
0
 62
     0
100
AcDbFaceRecord
 10
0.0
 20
0.0
 30
0.0
 70
   128
 71
    31
 72
    32
 73
    82
 74
    81
  0
VERTEX
  5
213
330
F
100
AcDbEntity
  8
0
 62
     0
100
AcDbFaceRecord
 10
0.0
 20
0.0
 30
0.0
 70
   128
 71
    32
 72
    33
 73
    83
 74
    82
  0
VERTEX
  5
214
330
F
100
AcDbEntity
  8
0
 62
     0
100
AcDbFaceRecord
 10
0.0
 20
0.0
 30
0.0
 70
   128
 71
    33
 72
    34
 73
    84
 74
    83
  0
VERTEX
  5
215
330
F
100
AcDbEntity
  8
0
 62
     0
100
AcDbFaceRecord
 10
0.0
 20
0.0
 30
0.0
 70
   128
 71
    34
 72
    35
 73
    85
 74
    84
  0
VERTEX
  5
216
330
F
100
AcDbEntity
  8
0
 62
     0
100
AcDbFaceRecord
 10
0.0
 20
0.0
 30
0.0
 70
   128
 71
    35
 72
    36
 73
    86
 74
    85
  0
VERTEX
  5
217
330
F
100
AcDbEntity
  8
0
 62
     0
100
AcDbFaceRecord
 10
0.0
 20
0.0
 30
0.0
 70
   128
 71
    36
 72
    37
 73
    87
 74
    86
  0
VERTEX
  5
218
330
F
100
AcDbEntity
  8
0
 62
     0
100
AcDbFaceRecord
 10
0.0
 20
0.0
 30
0.0
 70
   128
 71
    37
 72
    38
 73
    88
 74
    87
  0
VERTEX
  5
219
330
F
100
AcDbEntity
  8
0
 62
     0
100
AcDbFaceRecord
 10
0.0
 20
0.0
 30
0.0
 70
   128
 71
    38
 72
    39
 73
    89
 74
    88
  0
VERTEX
  5
21A
330
F
100
AcDbEntity
  8
0
 62
     0
100
AcDbFaceRecord
 10
0.0
 20
0.0
 30
0.0
 70
   128
 71
    39
 72
    40
 73
    90
 74
    89
  0
VERTEX
  5
21B
330
F
100
AcDbEntity
  8
0
 62
     0
100
AcDbFaceRecord
 10
0.0
 20
0.0
 30
0.0
 70
   128
 71
    40
 72
    41
 73
    91
 74
    90
  0
VERTEX
  5
21C
330
F
100
AcDbEntity
  8
0
 62
     0
100
AcDbFaceRecord
 10
0.0
 20
0.0
 30
0.0
 70
   128
 71
    41
 72
    42
 73
    92
 74
    91
  0
VERTEX
  5
21D
330
F
100
AcDbEntity
  8
0
 62
     0
100
AcDbFaceRecord
 10
0.0
 20
0.0
 30
0.0
 70
   128
 71
    42
 72
    43
 73
    93
 74
    92
  0
VERTEX
  5
21E
330
F
100
AcDbEntity
  8
0
 62
     0
100
AcDbFaceRecord
 10
0.0
 20
0.0
 30
0.0
 70
   128
 71
    43
 72
    44
 73
    94
 74
    93
  0
VERTEX
  5
21F
330
F
100
AcDbEntity
  8
0
 62
     0
100
AcDbFaceRecord
 10
0.0
 20
0.0
 30
0.0
 70
   128
 71
    44
 72
    45
 73
    95
 74
    94
  0
VERTEX
  5
220
330
F
100
AcDbEntity
  8
0
 62
     0
100
AcDbFaceRecord
 10
0.0
 20
0.0
 30
0.0
 70
   128
 71
    45
 72
    46
 73
    96
 74
    95
  0
VERTEX
  5
221
330
F
100
AcDbEntity
  8
0
 62
     0
100
AcDbFaceRecord
 10
0.0
 20
0.0
 30
0.0
 70
   128
 71
    46
 72
    47
 73
    97
 74
    96
  0
VERTEX
  5
222
330
F
100
AcDbEntity
  8
0
 62
     0
100
AcDbFaceRecord
 10
0.0
 20
0.0
 30
0.0
 70
   128
 71
    47
 72
    48
 73
    98
 74
    97
  0
VERTEX
  5
223
330
F
100
AcDbEntity
  8
0
 62
     0
100
AcDbFaceRecord
 10
0.0
 20
0.0
 30
0.0
 70
   128
 71
    48
 72
    49
 73
    99
 74
    98
  0
VERTEX
  5
224
330
F
100
AcDbEntity
  8
0
 62
     0
100
AcDbFaceRecord
 10
0.0
 20
0.0
 30
0.0
 70
   128
 71
    49
 72
    50
 73
   100
 74
    99
  0
SEQEND
  5
151
330
F
100
AcDbEntity
  8
HOLME
  0
LWPOLYLINE
  5
10
330
4E
100
AcDbEntity
  8
STUFEN
100
AcDbPolyline
 90
        5
 70
     0
 43
0.0
 38
183.3333333333333
 10
-29.999604999605
 20
2950.0
 10
-30.000425000425
 20
2130.0
 10
222.9995749975741
 20
2130.0
 10
223.0003949983941
 20
2950.0
 10
-29.999604999605
 20
2950.0
  0
POLYLINE
  5
11
330
4E
100
AcDbEntity
  8
STUFEN
100
AcDbPolyFaceMesh
 66
     1
 10
0.0
 20
0.0
 30
0.0
 70
    64
 71
    10
 72
     8
  0
VERTEX
  5
226
330
11
100
AcDbEntity
  8
0
100
AcDbVertex
100
AcDbPolyFaceMeshVertex
 10
-29.999604999605
 20
2950.0
 30
183.3333333333333
 70
   192
  0
VERTEX
  5
227
330
11
100
AcDbEntity
  8
0
100
AcDbVertex
100
AcDbPolyFaceMeshVertex
 10
-30.000425000425
 20
2130.0
 30
183.3333333333333
 70
   192
  0
VERTEX
  5
228
330
11
100
AcDbEntity
  8
0
100
AcDbVertex
100
AcDbPolyFaceMeshVertex
 10
222.9995749975741
 20
2130.0
 30
183.3333333333333
 70
   192
  0
VERTEX
  5
229
330
11
100
AcDbEntity
  8
0
100
AcDbVertex
100
AcDbPolyFaceMeshVertex
 10
223.0003949983941
 20
2950.0
 30
183.3333333333333
 70
   192
  0
VERTEX
  5
22A
330
11
100
AcDbEntity
  8
0
100
AcDbVertex
100
AcDbPolyFaceMeshVertex
 10
-29.999604999605
 20
2950.0
 30
183.3333333333333
 70
   192
  0
VERTEX
  5
22B
330
11
100
AcDbEntity
  8
0
100
AcDbVertex
100
AcDbPolyFaceMeshVertex
 10
-29.999604999605
 20
2950.0
 30
143.3333333333333
 70
   192
  0
VERTEX
  5
22C
330
11
100
AcDbEntity
  8
0
100
AcDbVertex
100
AcDbPolyFaceMeshVertex
 10
-30.000425000425
 20
2130.0
 30
143.3333333333333
 70
   192
  0
VERTEX
  5
22D
330
11
100
AcDbEntity
  8
0
100
AcDbVertex
100
AcDbPolyFaceMeshVertex
 10
222.9995749975741
 20
2130.0
 30
143.3333333333333
 70
   192
  0
VERTEX
  5
22E
330
11
100
AcDbEntity
  8
0
100
AcDbVertex
100
AcDbPolyFaceMeshVertex
 10
223.0003949983941
 20
2950.0
 30
143.3333333333333
 70
   192
  0
VERTEX
  5
22F
330
11
100
AcDbEntity
  8
0
100
AcDbVertex
100
AcDbPolyFaceMeshVertex
 10
-29.999604999605
 20
2950.0
 30
143.3333333333333
 70
   192
  0
VERTEX
  5
230
330
11
100
AcDbEntity
  8
0
 62
     0
100
AcDbFaceRecord
 10
0.0
 20
0.0
 30
0.0
 70
   128
 71
    -5
 72
    -2
 73
    -3
 74
    -3
  0
VERTEX
  5
231
330
11
100
AcDbEntity
  8
0
 62
     0
100
AcDbFaceRecord
 10
0.0
 20
0.0
 30
0.0
 70
   128
 71
   -10
 72
    -7
 73
    -8
 74
    -8
  0
VERTEX
  5
232
330
11
100
AcDbEntity
  8
0
 62
     0
100
AcDbFaceRecord
 10
0.0
 20
0.0
 30
0.0
 70
   128
 71
    -3
 72
    -4
 73
    -5
 74
    -5
  0
VERTEX
  5
233
330
11
100
AcDbEntity
  8
0
 62
     0
100
AcDbFaceRecord
 10
0.0
 20
0.0
 30
0.0
 70
   128
 71
    -8
 72
    -9
 73
   -10
 74
   -10
  0
VERTEX
  5
234
330
11
100
AcDbEntity
  8
0
 62
     0
100
AcDbFaceRecord
 10
0.0
 20
0.0
 30
0.0
 70
   128
 71
     1
 72
     2
 73
     7
 74
     6
  0
VERTEX
  5
235
330
11
100
AcDbEntity
  8
0
 62
     0
100
AcDbFaceRecord
 10
0.0
 20
0.0
 30
0.0
 70
   128
 71
     2
 72
     3
 73
     8
 74
     7
  0
VERTEX
  5
236
330
11
100
AcDbEntity
  8
0
 62
     0
100
AcDbFaceRecord
 10
0.0
 20
0.0
 30
0.0
 70
   128
 71
     3
 72
     4
 73
     9
 74
     8
  0
VERTEX
  5
237
330
11
100
AcDbEntity
  8
0
 62
     0
100
AcDbFaceRecord
 10
0.0
 20
0.0
 30
0.0
 70
   128
 71
     4
 72
     5
 73
    10
 74
     9
  0
SEQEND
  5
225
330
11
100
AcDbEntity
  8
STUFEN
  0
LWPOLYLINE
  5
12
330
4E
100
AcDbEntity
  8
STUFEN
100
AcDbPolyline
 90
        5
 70
     0
 43
0.0
 38
366.6666666666667
 10
193.000395000395
 20
2950.0
 10
192.999574999575
 20
2130.0
 10
445.9995749975741
 20
2130.0
 10
446.0003949983941
 20
2950.0
 10
193.000395000395
 20
2950.0
  0
POLYLINE
  5
13
330
4E
100
AcDbEntity
  8
STUFEN
100
AcDbPolyFaceMesh
 66
     1
 10
0.0
 20
0.0
 30
0.0
 70
    64
 71
    10
 72
     8
  0
VERTEX
  5
239
330
13
100
AcDbEntity
  8
0
100
AcDbVertex
100
AcDbPolyFaceMeshVertex
 10
193.000395000395
 20
2950.0
 30
366.6666666666667
 70
   192
  0
VERTEX
  5
23A
330
13
100
AcDbEntity
  8
0
100
AcDbVertex
100
AcDbPolyFaceMeshVertex
 10
192.999574999575
 20
2130.0
 30
366.6666666666667
 70
   192
  0
VERTEX
  5
23B
330
13
100
AcDbEntity
  8
0
100
AcDbVertex
100
AcDbPolyFaceMeshVertex
 10
445.9995749975741
 20
2130.0
 30
366.6666666666667
 70
   192
  0
VERTEX
  5
23C
330
13
100
AcDbEntity
  8
0
100
AcDbVertex
100
AcDbPolyFaceMeshVertex
 10
446.0003949983941
 20
2950.0
 30
366.6666666666667
 70
   192
  0
VERTEX
  5
23D
330
13
100
AcDbEntity
  8
0
100
AcDbVertex
100
AcDbPolyFaceMeshVertex
 10
193.000395000395
 20
2950.0
 30
366.6666666666667
 70
   192
  0
VERTEX
  5
23E
330
13
100
AcDbEntity
  8
0
100
AcDbVertex
100
AcDbPolyFaceMeshVertex
 10
193.000395000395
 20
2950.0
 30
326.6666666666667
 70
   192
  0
VERTEX
  5
23F
330
13
100
AcDbEntity
  8
0
100
AcDbVertex
100
AcDbPolyFaceMeshVertex
 10
192.999574999575
 20
2130.0
 30
326.6666666666667
 70
   192
  0
VERTEX
  5
240
330
13
100
AcDbEntity
  8
0
100
AcDbVertex
100
AcDbPolyFaceMeshVertex
 10
445.9995749975741
 20
2130.0
 30
326.6666666666667
 70
   192
  0
VERTEX
  5
241
330
13
100
AcDbEntity
  8
0
100
AcDbVertex
100
AcDbPolyFaceMeshVertex
 10
446.0003949983941
 20
2950.0
 30
326.6666666666667
 70
   192
  0
VERTEX
  5
242
330
13
100
AcDbEntity
  8
0
100
AcDbVertex
100
AcDbPolyFaceMeshVertex
 10
193.000395000395
 20
2950.0
 30
326.6666666666667
 70
   192
  0
VERTEX
  5
243
330
13
100
AcDbEntity
  8
0
 62
     0
100
AcDbFaceRecord
 10
0.0
 20
0.0
 30
0.0
 70
   128
 71
    -5
 72
    -2
 73
    -3
 74
    -3
  0
VERTEX
  5
244
330
13
100
AcDbEntity
  8
0
 62
     0
100
AcDbFaceRecord
 10
0.0
 20
0.0
 30
0.0
 70
   128
 71
   -10
 72
    -7
 73
    -8
 74
    -8
  0
VERTEX
  5
245
330
13
100
AcDbEntity
  8
0
 62
     0
100
AcDbFaceRecord
 10
0.0
 20
0.0
 30
0.0
 70
   128
 71
    -3
 72
    -4
 73
    -5
 74
    -5
  0
VERTEX
  5
246
330
13
100
AcDbEntity
  8
0
 62
     0
100
AcDbFaceRecord
 10
0.0
 20
0.0
 30
0.0
 70
   128
 71
    -8
 72
    -9
 73
   -10
 74
   -10
  0
VERTEX
  5
247
330
13
100
AcDbEntity
  8
0
 62
     0
100
AcDbFaceRecord
 10
0.0
 20
0.0
 30
0.0
 70
   128
 71
     1
 72
     2
 73
     7
 74
     6
  0
VERTEX
  5
248
330
13
100
AcDbEntity
  8
0
 62
     0
100
AcDbFaceRecord
 10
0.0
 20
0.0
 30
0.0
 70
   128
 71
     2
 72
     3
 73
     8
 74
     7
  0
VERTEX
  5
249
330
13
100
AcDbEntity
  8
0
 62
     0
100
AcDbFaceRecord
 10
0.0
 20
0.0
 30
0.0
 70
   128
 71
     3
 72
     4
 73
     9
 74
     8
  0
VERTEX
  5
24A
330
13
100
AcDbEntity
  8
0
 62
     0
100
AcDbFaceRecord
 10
0.0
 20
0.0
 30
0.0
 70
   128
 71
     4
 72
     5
 73
    10
 74
     9
  0
SEQEND
  5
238
330
13
100
AcDbEntity
  8
STUFEN
  0
LWPOLYLINE
  5
14
330
4E
100
AcDbEntity
  8
STUFEN
100
AcDbPolyline
 90
        5
 70
     0
 43
0.0
 38
550.0
 10
416.000395000395
 20
2950.0
 10
415.999574999575
 20
2130.0
 10
668.9995749975741
 20
2130.0
 10
669.0003949983941
 20
2950.0
 10
416.000395000395
 20
2950.0
  0
POLYLINE
  5
15
330
4E
100
AcDbEntity
  8
STUFEN
100
AcDbPolyFaceMesh
 66
     1
 10
0.0
 20
0.0
 30
0.0
 70
    64
 71
    10
 72
     8
  0
VERTEX
  5
24C
330
15
100
AcDbEntity
  8
0
100
AcDbVertex
100
AcDbPolyFaceMeshVertex
 10
416.000395000395
 20
2950.0
 30
550.0
 70
   192
  0
VERTEX
  5
24D
330
15
100
AcDbEntity
  8
0
100
AcDbVertex
100
AcDbPolyFaceMeshVertex
 10
415.999574999575
 20
2130.0
 30
550.0
 70
   192
  0
VERTEX
  5
24E
330
15
100
AcDbEntity
  8
0
100
AcDbVertex
100
AcDbPolyFaceMeshVertex
 10
668.9995749975741
 20
2130.0
 30
550.0
 70
   192
  0
VERTEX
  5
24F
330
15
100
AcDbEntity
  8
0
100
AcDbVertex
100
AcDbPolyFaceMeshVertex
 10
669.0003949983941
 20
2950.0
 30
550.0
 70
   192
  0
VERTEX
  5
250
330
15
100
AcDbEntity
  8
0
100
AcDbVertex
100
AcDbPolyFaceMeshVertex
 10
416.000395000395
 20
2950.0
 30
550.0
 70
   192
  0
VERTEX
  5
251
330
15
100
AcDbEntity
  8
0
100
AcDbVertex
100
AcDbPolyFaceMeshVertex
 10
416.000395000395
 20
2950.0
 30
510.0
 70
   192
  0
VERTEX
  5
252
330
15
100
AcDbEntity
  8
0
100
AcDbVertex
100
AcDbPolyFaceMeshVertex
 10
415.999574999575
 20
2130.0
 30
510.0
 70
   192
  0
VERTEX
  5
253
330
15
100
AcDbEntity
  8
0
100
AcDbVertex
100
AcDbPolyFaceMeshVertex
 10
668.9995749975741
 20
2130.0
 30
510.0
 70
   192
  0
VERTEX
  5
254
330
15
100
AcDbEntity
  8
0
100
AcDbVertex
100
AcDbPolyFaceMeshVertex
 10
669.0003949983941
 20
2950.0
 30
510.0
 70
   192
  0
VERTEX
  5
255
330
15
100
AcDbEntity
  8
0
100
AcDbVertex
100
AcDbPolyFaceMeshVertex
 10
416.000395000395
 20
2950.0
 30
510.0
 70
   192
  0
VERTEX
  5
256
330
15
100
AcDbEntity
  8
0
 62
     0
100
AcDbFaceRecord
 10
0.0
 20
0.0
 30
0.0
 70
   128
 71
    -5
 72
    -2
 73
    -3
 74
    -3
  0
VERTEX
  5
257
330
15
100
AcDbEntity
  8
0
 62
     0
100
AcDbFaceRecord
 10
0.0
 20
0.0
 30
0.0
 70
   128
 71
   -10
 72
    -7
 73
    -8
 74
    -8
  0
VERTEX
  5
258
330
15
100
AcDbEntity
  8
0
 62
     0
100
AcDbFaceRecord
 10
0.0
 20
0.0
 30
0.0
 70
   128
 71
    -3
 72
    -4
 73
    -5
 74
    -5
  0
VERTEX
  5
259
330
15
100
AcDbEntity
  8
0
 62
     0
100
AcDbFaceRecord
 10
0.0
 20
0.0
 30
0.0
 70
   128
 71
    -8
 72
    -9
 73
   -10
 74
   -10
  0
VERTEX
  5
25A
330
15
100
AcDbEntity
  8
0
 62
     0
100
AcDbFaceRecord
 10
0.0
 20
0.0
 30
0.0
 70
   128
 71
     1
 72
     2
 73
     7
 74
     6
  0
VERTEX
  5
25B
330
15
100
AcDbEntity
  8
0
 62
     0
100
AcDbFaceRecord
 10
0.0
 20
0.0
 30
0.0
 70
   128
 71
     2
 72
     3
 73
     8
 74
     7
  0
VERTEX
  5
25C
330
15
100
AcDbEntity
  8
0
 62
     0
100
AcDbFaceRecord
 10
0.0
 20
0.0
 30
0.0
 70
   128
 71
     3
 72
     4
 73
     9
 74
     8
  0
VERTEX
  5
25D
330
15
100
AcDbEntity
  8
0
 62
     0
100
AcDbFaceRecord
 10
0.0
 20
0.0
 30
0.0
 70
   128
 71
     4
 72
     5
 73
    10
 74
     9
  0
SEQEND
  5
24B
330
15
100
AcDbEntity
  8
STUFEN
  0
LWPOLYLINE
  5
16
330
4E
100
AcDbEntity
  8
STUFEN
100
AcDbPolyline
 90
        5
 70
     0
 43
0.0
 38
733.3333333333334
 10
639.000395000395
 20
2950.0
 10
638.999574999575
 20
2130.0
 10
891.9995749975741
 20
2130.0
 10
892.0003949983941
 20
2950.0
 10
639.000395000395
 20
2950.0
  0
POLYLINE
  5
17
330
4E
100
AcDbEntity
  8
STUFEN
100
AcDbPolyFaceMesh
 66
     1
 10
0.0
 20
0.0
 30
0.0
 70
    64
 71
    10
 72
     8
  0
VERTEX
  5
25F
330
17
100
AcDbEntity
  8
0
100
AcDbVertex
100
AcDbPolyFaceMeshVertex
 10
639.000395000395
 20
2950.0
 30
733.3333333333334
 70
   192
  0
VERTEX
  5
260
330
17
100
AcDbEntity
  8
0
100
AcDbVertex
100
AcDbPolyFaceMeshVertex
 10
638.999574999575
 20
2130.0
 30
733.3333333333334
 70
   192
  0
VERTEX
  5
261
330
17
100
AcDbEntity
  8
0
100
AcDbVertex
100
AcDbPolyFaceMeshVertex
 10
891.9995749975741
 20
2130.0
 30
733.3333333333334
 70
   192
  0
VERTEX
  5
262
330
17
100
AcDbEntity
  8
0
100
AcDbVertex
100
AcDbPolyFaceMeshVertex
 10
892.0003949983941
 20
2950.0
 30
733.3333333333334
 70
   192
  0
VERTEX
  5
263
330
17
100
AcDbEntity
  8
0
100
AcDbVertex
100
AcDbPolyFaceMeshVertex
 10
639.000395000395
 20
2950.0
 30
733.3333333333334
 70
   192
  0
VERTEX
  5
264
330
17
100
AcDbEntity
  8
0
100
AcDbVertex
100
AcDbPolyFaceMeshVertex
 10
639.000395000395
 20
2950.0
 30
693.3333333333334
 70
   192
  0
VERTEX
  5
265
330
17
100
AcDbEntity
  8
0
100
AcDbVertex
100
AcDbPolyFaceMeshVertex
 10
638.999574999575
 20
2130.0
 30
693.3333333333334
 70
   192
  0
VERTEX
  5
266
330
17
100
AcDbEntity
  8
0
100
AcDbVertex
100
AcDbPolyFaceMeshVertex
 10
891.9995749975741
 20
2130.0
 30
693.3333333333334
 70
   192
  0
VERTEX
  5
267
330
17
100
AcDbEntity
  8
0
100
AcDbVertex
100
AcDbPolyFaceMeshVertex
 10
892.0003949983941
 20
2950.0
 30
693.3333333333334
 70
   192
  0
VERTEX
  5
268
330
17
100
AcDbEntity
  8
0
100
AcDbVertex
100
AcDbPolyFaceMeshVertex
 10
639.000395000395
 20
2950.0
 30
693.3333333333334
 70
   192
  0
VERTEX
  5
269
330
17
100
AcDbEntity
  8
0
 62
     0
100
AcDbFaceRecord
 10
0.0
 20
0.0
 30
0.0
 70
   128
 71
    -5
 72
    -2
 73
    -3
 74
    -3
  0
VERTEX
  5
26A
330
17
100
AcDbEntity
  8
0
 62
     0
100
AcDbFaceRecord
 10
0.0
 20
0.0
 30
0.0
 70
   128
 71
   -10
 72
    -7
 73
    -8
 74
    -8
  0
VERTEX
  5
26B
330
17
100
AcDbEntity
  8
0
 62
     0
100
AcDbFaceRecord
 10
0.0
 20
0.0
 30
0.0
 70
   128
 71
    -3
 72
    -4
 73
    -5
 74
    -5
  0
VERTEX
  5
26C
330
17
100
AcDbEntity
  8
0
 62
     0
100
AcDbFaceRecord
 10
0.0
 20
0.0
 30
0.0
 70
   128
 71
    -8
 72
    -9
 73
   -10
 74
   -10
  0
VERTEX
  5
26D
330
17
100
AcDbEntity
  8
0
 62
     0
100
AcDbFaceRecord
 10
0.0
 20
0.0
 30
0.0
 70
   128
 71
     1
 72
     2
 73
     7
 74
     6
  0
VERTEX
  5
26E
330
17
100
AcDbEntity
  8
0
 62
     0
100
AcDbFaceRecord
 10
0.0
 20
0.0
 30
0.0
 70
   128
 71
     2
 72
     3
 73
     8
 74
     7
  0
VERTEX
  5
26F
330
17
100
AcDbEntity
  8
0
 62
     0
100
AcDbFaceRecord
 10
0.0
 20
0.0
 30
0.0
 70
   128
 71
     3
 72
     4
 73
     9
 74
     8
  0
VERTEX
  5
270
330
17
100
AcDbEntity
  8
0
 62
     0
100
AcDbFaceRecord
 10
0.0
 20
0.0
 30
0.0
 70
   128
 71
     4
 72
     5
 73
    10
 74
     9
  0
SEQEND
  5
25E
330
17
100
AcDbEntity
  8
STUFEN
  0
LWPOLYLINE
  5
18
330
4E
100
AcDbEntity
  8
STUFEN
100
AcDbPolyline
 90
        5
 70
     0
 43
0.0
 38
916.6666666666667
 10
862.000395000395
 20
2950.0
 10
861.999574999575
 20
2130.0
 10
1114.999574997574
 20
2130.0
 10
1115.000394998394
 20
2950.0
 10
862.000395000395
 20
2950.0
  0
POLYLINE
  5
19
330
4E
100
AcDbEntity
  8
STUFEN
100
AcDbPolyFaceMesh
 66
     1
 10
0.0
 20
0.0
 30
0.0
 70
    64
 71
    10
 72
     8
  0
VERTEX
  5
272
330
19
100
AcDbEntity
  8
0
100
AcDbVertex
100
AcDbPolyFaceMeshVertex
 10
862.000395000395
 20
2950.0
 30
916.6666666666667
 70
   192
  0
VERTEX
  5
273
330
19
100
AcDbEntity
  8
0
100
AcDbVertex
100
AcDbPolyFaceMeshVertex
 10
861.999574999575
 20
2130.0
 30
916.6666666666667
 70
   192
  0
VERTEX
  5
274
330
19
100
AcDbEntity
  8
0
100
AcDbVertex
100
AcDbPolyFaceMeshVertex
 10
1114.999574997574
 20
2130.0
 30
916.6666666666667
 70
   192
  0
VERTEX
  5
275
330
19
100
AcDbEntity
  8
0
100
AcDbVertex
100
AcDbPolyFaceMeshVertex
 10
1115.000394998394
 20
2950.0
 30
916.6666666666667
 70
   192
  0
VERTEX
  5
276
330
19
100
AcDbEntity
  8
0
100
AcDbVertex
100
AcDbPolyFaceMeshVertex
 10
862.000395000395
 20
2950.0
 30
916.6666666666667
 70
   192
  0
VERTEX
  5
277
330
19
100
AcDbEntity
  8
0
100
AcDbVertex
100
AcDbPolyFaceMeshVertex
 10
862.000395000395
 20
2950.0
 30
876.6666666666667
 70
   192
  0
VERTEX
  5
278
330
19
100
AcDbEntity
  8
0
100
AcDbVertex
100
AcDbPolyFaceMeshVertex
 10
861.999574999575
 20
2130.0
 30
876.6666666666667
 70
   192
  0
VERTEX
  5
279
330
19
100
AcDbEntity
  8
0
100
AcDbVertex
100
AcDbPolyFaceMeshVertex
 10
1114.999574997574
 20
2130.0
 30
876.6666666666667
 70
   192
  0
VERTEX
  5
27A
330
19
100
AcDbEntity
  8
0
100
AcDbVertex
100
AcDbPolyFaceMeshVertex
 10
1115.000394998394
 20
2950.0
 30
876.6666666666667
 70
   192
  0
VERTEX
  5
27B
330
19
100
AcDbEntity
  8
0
100
AcDbVertex
100
AcDbPolyFaceMeshVertex
 10
862.000395000395
 20
2950.0
 30
876.6666666666667
 70
   192
  0
VERTEX
  5
27C
330
19
100
AcDbEntity
  8
0
 62
     0
100
AcDbFaceRecord
 10
0.0
 20
0.0
 30
0.0
 70
   128
 71
    -5
 72
    -2
 73
    -3
 74
    -3
  0
VERTEX
  5
27D
330
19
100
AcDbEntity
  8
0
 62
     0
100
AcDbFaceRecord
 10
0.0
 20
0.0
 30
0.0
 70
   128
 71
   -10
 72
    -7
 73
    -8
 74
    -8
  0
VERTEX
  5
27E
330
19
100
AcDbEntity
  8
0
 62
     0
100
AcDbFaceRecord
 10
0.0
 20
0.0
 30
0.0
 70
   128
 71
    -3
 72
    -4
 73
    -5
 74
    -5
  0
VERTEX
  5
27F
330
19
100
AcDbEntity
  8
0
 62
     0
100
AcDbFaceRecord
 10
0.0
 20
0.0
 30
0.0
 70
   128
 71
    -8
 72
    -9
 73
   -10
 74
   -10
  0
VERTEX
  5
280
330
19
100
AcDbEntity
  8
0
 62
     0
100
AcDbFaceRecord
 10
0.0
 20
0.0
 30
0.0
 70
   128
 71
     1
 72
     2
 73
     7
 74
     6
  0
VERTEX
  5
281
330
19
100
AcDbEntity
  8
0
 62
     0
100
AcDbFaceRecord
 10
0.0
 20
0.0
 30
0.0
 70
   128
 71
     2
 72
     3
 73
     8
 74
     7
  0
VERTEX
  5
282
330
19
100
AcDbEntity
  8
0
 62
     0
100
AcDbFaceRecord
 10
0.0
 20
0.0
 30
0.0
 70
   128
 71
     3
 72
     4
 73
     9
 74
     8
  0
VERTEX
  5
283
330
19
100
AcDbEntity
  8
0
 62
     0
100
AcDbFaceRecord
 10
0.0
 20
0.0
 30
0.0
 70
   128
 71
     4
 72
     5
 73
    10
 74
     9
  0
SEQEND
  5
271
330
19
100
AcDbEntity
  8
STUFEN
  0
LWPOLYLINE
  5
1A
330
4E
100
AcDbEntity
  8
STUFEN
100
AcDbPolyline
 90
        5
 70
     0
 43
0.0
 38
1100.0
 10
1085.000395000395
 20
2950.0
 10
1084.999574999575
 20
2130.0
 10
1337.999574997574
 20
2130.0
 10
1338.000394998394
 20
2950.0
 10
1085.000395000395
 20
2950.0
  0
POLYLINE
  5
1B
330
4E
100
AcDbEntity
  8
STUFEN
100
AcDbPolyFaceMesh
 66
     1
 10
0.0
 20
0.0
 30
0.0
 70
    64
 71
    10
 72
     8
  0
VERTEX
  5
285
330
1B
100
AcDbEntity
  8
0
100
AcDbVertex
100
AcDbPolyFaceMeshVertex
 10
1085.000395000395
 20
2950.0
 30
1100.0
 70
   192
  0
VERTEX
  5
286
330
1B
100
AcDbEntity
  8
0
100
AcDbVertex
100
AcDbPolyFaceMeshVertex
 10
1084.999574999575
 20
2130.0
 30
1100.0
 70
   192
  0
VERTEX
  5
287
330
1B
100
AcDbEntity
  8
0
100
AcDbVertex
100
AcDbPolyFaceMeshVertex
 10
1337.999574997574
 20
2130.0
 30
1100.0
 70
   192
  0
VERTEX
  5
288
330
1B
100
AcDbEntity
  8
0
100
AcDbVertex
100
AcDbPolyFaceMeshVertex
 10
1338.000394998394
 20
2950.0
 30
1100.0
 70
   192
  0
VERTEX
  5
289
330
1B
100
AcDbEntity
  8
0
100
AcDbVertex
100
AcDbPolyFaceMeshVertex
 10
1085.000395000395
 20
2950.0
 30
1100.0
 70
   192
  0
VERTEX
  5
28A
330
1B
100
AcDbEntity
  8
0
100
AcDbVertex
100
AcDbPolyFaceMeshVertex
 10
1085.000395000395
 20
2950.0
 30
1060.0
 70
   192
  0
VERTEX
  5
28B
330
1B
100
AcDbEntity
  8
0
100
AcDbVertex
100
AcDbPolyFaceMeshVertex
 10
1084.999574999575
 20
2130.0
 30
1060.0
 70
   192
  0
VERTEX
  5
28C
330
1B
100
AcDbEntity
  8
0
100
AcDbVertex
100
AcDbPolyFaceMeshVertex
 10
1337.999574997574
 20
2130.0
 30
1060.0
 70
   192
  0
VERTEX
  5
28D
330
1B
100
AcDbEntity
  8
0
100
AcDbVertex
100
AcDbPolyFaceMeshVertex
 10
1338.000394998394
 20
2950.0
 30
1060.0
 70
   192
  0
VERTEX
  5
28E
330
1B
100
AcDbEntity
  8
0
100
AcDbVertex
100
AcDbPolyFaceMeshVertex
 10
1085.000395000395
 20
2950.0
 30
1060.0
 70
   192
  0
VERTEX
  5
28F
330
1B
100
AcDbEntity
  8
0
 62
     0
100
AcDbFaceRecord
 10
0.0
 20
0.0
 30
0.0
 70
   128
 71
    -5
 72
    -2
 73
    -3
 74
    -3
  0
VERTEX
  5
290
330
1B
100
AcDbEntity
  8
0
 62
     0
100
AcDbFaceRecord
 10
0.0
 20
0.0
 30
0.0
 70
   128
 71
   -10
 72
    -7
 73
    -8
 74
    -8
  0
VERTEX
  5
291
330
1B
100
AcDbEntity
  8
0
 62
     0
100
AcDbFaceRecord
 10
0.0
 20
0.0
 30
0.0
 70
   128
 71
    -3
 72
    -4
 73
    -5
 74
    -5
  0
VERTEX
  5
292
330
1B
100
AcDbEntity
  8
0
 62
     0
100
AcDbFaceRecord
 10
0.0
 20
0.0
 30
0.0
 70
   128
 71
    -8
 72
    -9
 73
   -10
 74
   -10
  0
VERTEX
  5
293
330
1B
100
AcDbEntity
  8
0
 62
     0
100
AcDbFaceRecord
 10
0.0
 20
0.0
 30
0.0
 70
   128
 71
     1
 72
     2
 73
     7
 74
     6
  0
VERTEX
  5
294
330
1B
100
AcDbEntity
  8
0
 62
     0
100
AcDbFaceRecord
 10
0.0
 20
0.0
 30
0.0
 70
   128
 71
     2
 72
     3
 73
     8
 74
     7
  0
VERTEX
  5
295
330
1B
100
AcDbEntity
  8
0
 62
     0
100
AcDbFaceRecord
 10
0.0
 20
0.0
 30
0.0
 70
   128
 71
     3
 72
     4
 73
     9
 74
     8
  0
VERTEX
  5
296
330
1B
100
AcDbEntity
  8
0
 62
     0
100
AcDbFaceRecord
 10
0.0
 20
0.0
 30
0.0
 70
   128
 71
     4
 72
     5
 73
    10
 74
     9
  0
SEQEND
  5
284
330
1B
100
AcDbEntity
  8
STUFEN
  0
LWPOLYLINE
  5
1C
330
4E
100
AcDbEntity
  8
STUFEN
100
AcDbPolyline
 90
        5
 70
     0
 43
0.0
 38
1283.333333333334
 10
1308.000395000395
 20
2950.0
 10
1307.999574999575
 20
2130.0
 10
1560.999574997574
 20
2130.0
 10
1561.000394998394
 20
2950.0
 10
1308.000395000395
 20
2950.0
  0
POLYLINE
  5
1D
330
4E
100
AcDbEntity
  8
STUFEN
100
AcDbPolyFaceMesh
 66
     1
 10
0.0
 20
0.0
 30
0.0
 70
    64
 71
    10
 72
     8
  0
VERTEX
  5
298
330
1D
100
AcDbEntity
  8
0
100
AcDbVertex
100
AcDbPolyFaceMeshVertex
 10
1308.000395000395
 20
2950.0
 30
1283.333333333334
 70
   192
  0
VERTEX
  5
299
330
1D
100
AcDbEntity
  8
0
100
AcDbVertex
100
AcDbPolyFaceMeshVertex
 10
1307.999574999575
 20
2130.0
 30
1283.333333333334
 70
   192
  0
VERTEX
  5
29A
330
1D
100
AcDbEntity
  8
0
100
AcDbVertex
100
AcDbPolyFaceMeshVertex
 10
1560.999574997574
 20
2130.0
 30
1283.333333333334
 70
   192
  0
VERTEX
  5
29B
330
1D
100
AcDbEntity
  8
0
100
AcDbVertex
100
AcDbPolyFaceMeshVertex
 10
1561.000394998394
 20
2950.0
 30
1283.333333333334
 70
   192
  0
VERTEX
  5
29C
330
1D
100
AcDbEntity
  8
0
100
AcDbVertex
100
AcDbPolyFaceMeshVertex
 10
1308.000395000395
 20
2950.0
 30
1283.333333333334
 70
   192
  0
VERTEX
  5
29D
330
1D
100
AcDbEntity
  8
0
100
AcDbVertex
100
AcDbPolyFaceMeshVertex
 10
1308.000395000395
 20
2950.0
 30
1243.333333333334
 70
   192
  0
VERTEX
  5
29E
330
1D
100
AcDbEntity
  8
0
100
AcDbVertex
100
AcDbPolyFaceMeshVertex
 10
1307.999574999575
 20
2130.0
 30
1243.333333333334
 70
   192
  0
VERTEX
  5
29F
330
1D
100
AcDbEntity
  8
0
100
AcDbVertex
100
AcDbPolyFaceMeshVertex
 10
1560.999574997574
 20
2130.0
 30
1243.333333333334
 70
   192
  0
VERTEX
  5
2A0
330
1D
100
AcDbEntity
  8
0
100
AcDbVertex
100
AcDbPolyFaceMeshVertex
 10
1561.000394998394
 20
2950.0
 30
1243.333333333334
 70
   192
  0
VERTEX
  5
2A1
330
1D
100
AcDbEntity
  8
0
100
AcDbVertex
100
AcDbPolyFaceMeshVertex
 10
1308.000395000395
 20
2950.0
 30
1243.333333333334
 70
   192
  0
VERTEX
  5
2A2
330
1D
100
AcDbEntity
  8
0
 62
     0
100
AcDbFaceRecord
 10
0.0
 20
0.0
 30
0.0
 70
   128
 71
    -5
 72
    -2
 73
    -3
 74
    -3
  0
VERTEX
  5
2A3
330
1D
100
AcDbEntity
  8
0
 62
     0
100
AcDbFaceRecord
 10
0.0
 20
0.0
 30
0.0
 70
   128
 71
   -10
 72
    -7
 73
    -8
 74
    -8
  0
VERTEX
  5
2A4
330
1D
100
AcDbEntity
  8
0
 62
     0
100
AcDbFaceRecord
 10
0.0
 20
0.0
 30
0.0
 70
   128
 71
    -3
 72
    -4
 73
    -5
 74
    -5
  0
VERTEX
  5
2A5
330
1D
100
AcDbEntity
  8
0
 62
     0
100
AcDbFaceRecord
 10
0.0
 20
0.0
 30
0.0
 70
   128
 71
    -8
 72
    -9
 73
   -10
 74
   -10
  0
VERTEX
  5
2A6
330
1D
100
AcDbEntity
  8
0
 62
     0
100
AcDbFaceRecord
 10
0.0
 20
0.0
 30
0.0
 70
   128
 71
     1
 72
     2
 73
     7
 74
     6
  0
VERTEX
  5
2A7
330
1D
100
AcDbEntity
  8
0
 62
     0
100
AcDbFaceRecord
 10
0.0
 20
0.0
 30
0.0
 70
   128
 71
     2
 72
     3
 73
     8
 74
     7
  0
VERTEX
  5
2A8
330
1D
100
AcDbEntity
  8
0
 62
     0
100
AcDbFaceRecord
 10
0.0
 20
0.0
 30
0.0
 70
   128
 71
     3
 72
     4
 73
     9
 74
     8
  0
VERTEX
  5
2A9
330
1D
100
AcDbEntity
  8
0
 62
     0
100
AcDbFaceRecord
 10
0.0
 20
0.0
 30
0.0
 70
   128
 71
     4
 72
     5
 73
    10
 74
     9
  0
SEQEND
  5
297
330
1D
100
AcDbEntity
  8
STUFEN
  0
LWPOLYLINE
  5
1E
330
4E
100
AcDbEntity
  8
STUFEN
100
AcDbPolyline
 90
        5
 70
     0
 43
0.0
 38
1466.666666666667
 10
1531.000395000395
 20
2950.0
 10
1530.999574999575
 20
2130.0
 10
1783.999574997574
 20
2130.0
 10
1784.000394998394
 20
2950.0
 10
1531.000395000395
 20
2950.0
  0
POLYLINE
  5
1F
330
4E
100
AcDbEntity
  8
STUFEN
100
AcDbPolyFaceMesh
 66
     1
 10
0.0
 20
0.0
 30
0.0
 70
    64
 71
    10
 72
     8
  0
VERTEX
  5
2AB
330
1F
100
AcDbEntity
  8
0
100
AcDbVertex
100
AcDbPolyFaceMeshVertex
 10
1531.000395000395
 20
2950.0
 30
1466.666666666667
 70
   192
  0
VERTEX
  5
2AC
330
1F
100
AcDbEntity
  8
0
100
AcDbVertex
100
AcDbPolyFaceMeshVertex
 10
1530.999574999575
 20
2130.0
 30
1466.666666666667
 70
   192
  0
VERTEX
  5
2AD
330
1F
100
AcDbEntity
  8
0
100
AcDbVertex
100
AcDbPolyFaceMeshVertex
 10
1783.999574997574
 20
2130.0
 30
1466.666666666667
 70
   192
  0
VERTEX
  5
2AE
330
1F
100
AcDbEntity
  8
0
100
AcDbVertex
100
AcDbPolyFaceMeshVertex
 10
1784.000394998394
 20
2950.0
 30
1466.666666666667
 70
   192
  0
VERTEX
  5
2AF
330
1F
100
AcDbEntity
  8
0
100
AcDbVertex
100
AcDbPolyFaceMeshVertex
 10
1531.000395000395
 20
2950.0
 30
1466.666666666667
 70
   192
  0
VERTEX
  5
2B0
330
1F
100
AcDbEntity
  8
0
100
AcDbVertex
100
AcDbPolyFaceMeshVertex
 10
1531.000395000395
 20
2950.0
 30
1426.666666666667
 70
   192
  0
VERTEX
  5
2B1
330
1F
100
AcDbEntity
  8
0
100
AcDbVertex
100
AcDbPolyFaceMeshVertex
 10
1530.999574999575
 20
2130.0
 30
1426.666666666667
 70
   192
  0
VERTEX
  5
2B2
330
1F
100
AcDbEntity
  8
0
100
AcDbVertex
100
AcDbPolyFaceMeshVertex
 10
1783.999574997574
 20
2130.0
 30
1426.666666666667
 70
   192
  0
VERTEX
  5
2B3
330
1F
100
AcDbEntity
  8
0
100
AcDbVertex
100
AcDbPolyFaceMeshVertex
 10
1784.000394998394
 20
2950.0
 30
1426.666666666667
 70
   192
  0
VERTEX
  5
2B4
330
1F
100
AcDbEntity
  8
0
100
AcDbVertex
100
AcDbPolyFaceMeshVertex
 10
1531.000395000395
 20
2950.0
 30
1426.666666666667
 70
   192
  0
VERTEX
  5
2B5
330
1F
100
AcDbEntity
  8
0
 62
     0
100
AcDbFaceRecord
 10
0.0
 20
0.0
 30
0.0
 70
   128
 71
    -5
 72
    -2
 73
    -3
 74
    -3
  0
VERTEX
  5
2B6
330
1F
100
AcDbEntity
  8
0
 62
     0
100
AcDbFaceRecord
 10
0.0
 20
0.0
 30
0.0
 70
   128
 71
   -10
 72
    -7
 73
    -8
 74
    -8
  0
VERTEX
  5
2B7
330
1F
100
AcDbEntity
  8
0
 62
     0
100
AcDbFaceRecord
 10
0.0
 20
0.0
 30
0.0
 70
   128
 71
    -3
 72
    -4
 73
    -5
 74
    -5
  0
VERTEX
  5
2B8
330
1F
100
AcDbEntity
  8
0
 62
     0
100
AcDbFaceRecord
 10
0.0
 20
0.0
 30
0.0
 70
   128
 71
    -8
 72
    -9
 73
   -10
 74
   -10
  0
VERTEX
  5
2B9
330
1F
100
AcDbEntity
  8
0
 62
     0
100
AcDbFaceRecord
 10
0.0
 20
0.0
 30
0.0
 70
   128
 71
     1
 72
     2
 73
     7
 74
     6
  0
VERTEX
  5
2BA
330
1F
100
AcDbEntity
  8
0
 62
     0
100
AcDbFaceRecord
 10
0.0
 20
0.0
 30
0.0
 70
   128
 71
     2
 72
     3
 73
     8
 74
     7
  0
VERTEX
  5
2BB
330
1F
100
AcDbEntity
  8
0
 62
     0
100
AcDbFaceRecord
 10
0.0
 20
0.0
 30
0.0
 70
   128
 71
     3
 72
     4
 73
     9
 74
     8
  0
VERTEX
  5
2BC
330
1F
100
AcDbEntity
  8
0
 62
     0
100
AcDbFaceRecord
 10
0.0
 20
0.0
 30
0.0
 70
   128
 71
     4
 72
     5
 73
    10
 74
     9
  0
SEQEND
  5
2AA
330
1F
100
AcDbEntity
  8
STUFEN
  0
LWPOLYLINE
  5
20
330
4E
100
AcDbEntity
  8
STUFEN
100
AcDbPolyline
 90
        5
 70
     0
 43
0.0
 38
1650.0
 10
1754.000395000395
 20
2950.0
 10
1753.999574999575
 20
2130.0
 10
2006.999574997574
 20
2130.0
 10
2007.000394998394
 20
2950.0
 10
1754.000395000395
 20
2950.0
  0
POLYLINE
  5
21
330
4E
100
AcDbEntity
  8
STUFEN
100
AcDbPolyFaceMesh
 66
     1
 10
0.0
 20
0.0
 30
0.0
 70
    64
 71
    10
 72
     8
  0
VERTEX
  5
2BE
330
21
100
AcDbEntity
  8
0
100
AcDbVertex
100
AcDbPolyFaceMeshVertex
 10
1754.000395000395
 20
2950.0
 30
1650.0
 70
   192
  0
VERTEX
  5
2BF
330
21
100
AcDbEntity
  8
0
100
AcDbVertex
100
AcDbPolyFaceMeshVertex
 10
1753.999574999575
 20
2130.0
 30
1650.0
 70
   192
  0
VERTEX
  5
2C0
330
21
100
AcDbEntity
  8
0
100
AcDbVertex
100
AcDbPolyFaceMeshVertex
 10
2006.999574997574
 20
2130.0
 30
1650.0
 70
   192
  0
VERTEX
  5
2C1
330
21
100
AcDbEntity
  8
0
100
AcDbVertex
100
AcDbPolyFaceMeshVertex
 10
2007.000394998394
 20
2950.0
 30
1650.0
 70
   192
  0
VERTEX
  5
2C2
330
21
100
AcDbEntity
  8
0
100
AcDbVertex
100
AcDbPolyFaceMeshVertex
 10
1754.000395000395
 20
2950.0
 30
1650.0
 70
   192
  0
VERTEX
  5
2C3
330
21
100
AcDbEntity
  8
0
100
AcDbVertex
100
AcDbPolyFaceMeshVertex
 10
1754.000395000395
 20
2950.0
 30
1610.0
 70
   192
  0
VERTEX
  5
2C4
330
21
100
AcDbEntity
  8
0
100
AcDbVertex
100
AcDbPolyFaceMeshVertex
 10
1753.999574999575
 20
2130.0
 30
1610.0
 70
   192
  0
VERTEX
  5
2C5
330
21
100
AcDbEntity
  8
0
100
AcDbVertex
100
AcDbPolyFaceMeshVertex
 10
2006.999574997574
 20
2130.0
 30
1610.0
 70
   192
  0
VERTEX
  5
2C6
330
21
100
AcDbEntity
  8
0
100
AcDbVertex
100
AcDbPolyFaceMeshVertex
 10
2007.000394998394
 20
2950.0
 30
1610.0
 70
   192
  0
VERTEX
  5
2C7
330
21
100
AcDbEntity
  8
0
100
AcDbVertex
100
AcDbPolyFaceMeshVertex
 10
1754.000395000395
 20
2950.0
 30
1610.0
 70
   192
  0
VERTEX
  5
2C8
330
21
100
AcDbEntity
  8
0
 62
     0
100
AcDbFaceRecord
 10
0.0
 20
0.0
 30
0.0
 70
   128
 71
    -5
 72
    -2
 73
    -3
 74
    -3
  0
VERTEX
  5
2C9
330
21
100
AcDbEntity
  8
0
 62
     0
100
AcDbFaceRecord
 10
0.0
 20
0.0
 30
0.0
 70
   128
 71
   -10
 72
    -7
 73
    -8
 74
    -8
  0
VERTEX
  5
2CA
330
21
100
AcDbEntity
  8
0
 62
     0
100
AcDbFaceRecord
 10
0.0
 20
0.0
 30
0.0
 70
   128
 71
    -3
 72
    -4
 73
    -5
 74
    -5
  0
VERTEX
  5
2CB
330
21
100
AcDbEntity
  8
0
 62
     0
100
AcDbFaceRecord
 10
0.0
 20
0.0
 30
0.0
 70
   128
 71
    -8
 72
    -9
 73
   -10
 74
   -10
  0
VERTEX
  5
2CC
330
21
100
AcDbEntity
  8
0
 62
     0
100
AcDbFaceRecord
 10
0.0
 20
0.0
 30
0.0
 70
   128
 71
     1
 72
     2
 73
     7
 74
     6
  0
VERTEX
  5
2CD
330
21
100
AcDbEntity
  8
0
 62
     0
100
AcDbFaceRecord
 10
0.0
 20
0.0
 30
0.0
 70
   128
 71
     2
 72
     3
 73
     8
 74
     7
  0
VERTEX
  5
2CE
330
21
100
AcDbEntity
  8
0
 62
     0
100
AcDbFaceRecord
 10
0.0
 20
0.0
 30
0.0
 70
   128
 71
     3
 72
     4
 73
     9
 74
     8
  0
VERTEX
  5
2CF
330
21
100
AcDbEntity
  8
0
 62
     0
100
AcDbFaceRecord
 10
0.0
 20
0.0
 30
0.0
 70
   128
 71
     4
 72
     5
 73
    10
 74
     9
  0
SEQEND
  5
2BD
330
21
100
AcDbEntity
  8
STUFEN
  0
LWPOLYLINE
  5
22
330
4E
100
AcDbEntity
  8
STUFEN
100
AcDbPolyline
 90
        5
 70
     0
 43
0.0
 38
1833.333333333334
 10
1977.000395000395
 20
2950.0
 10
1976.999574999575
 20
2130.0
 10
2229.999574997574
 20
2130.0
 10
2230.000394998394
 20
2950.0
 10
1977.000395000395
 20
2950.0
  0
POLYLINE
  5
23
330
4E
100
AcDbEntity
  8
STUFEN
100
AcDbPolyFaceMesh
 66
     1
 10
0.0
 20
0.0
 30
0.0
 70
    64
 71
    10
 72
     8
  0
VERTEX
  5
2D1
330
23
100
AcDbEntity
  8
0
100
AcDbVertex
100
AcDbPolyFaceMeshVertex
 10
1977.000395000395
 20
2950.0
 30
1833.333333333334
 70
   192
  0
VERTEX
  5
2D2
330
23
100
AcDbEntity
  8
0
100
AcDbVertex
100
AcDbPolyFaceMeshVertex
 10
1976.999574999575
 20
2130.0
 30
1833.333333333334
 70
   192
  0
VERTEX
  5
2D3
330
23
100
AcDbEntity
  8
0
100
AcDbVertex
100
AcDbPolyFaceMeshVertex
 10
2229.999574997574
 20
2130.0
 30
1833.333333333334
 70
   192
  0
VERTEX
  5
2D4
330
23
100
AcDbEntity
  8
0
100
AcDbVertex
100
AcDbPolyFaceMeshVertex
 10
2230.000394998394
 20
2950.0
 30
1833.333333333334
 70
   192
  0
VERTEX
  5
2D5
330
23
100
AcDbEntity
  8
0
100
AcDbVertex
100
AcDbPolyFaceMeshVertex
 10
1977.000395000395
 20
2950.0
 30
1833.333333333334
 70
   192
  0
VERTEX
  5
2D6
330
23
100
AcDbEntity
  8
0
100
AcDbVertex
100
AcDbPolyFaceMeshVertex
 10
1977.000395000395
 20
2950.0
 30
1793.333333333334
 70
   192
  0
VERTEX
  5
2D7
330
23
100
AcDbEntity
  8
0
100
AcDbVertex
100
AcDbPolyFaceMeshVertex
 10
1976.999574999575
 20
2130.0
 30
1793.333333333334
 70
   192
  0
VERTEX
  5
2D8
330
23
100
AcDbEntity
  8
0
100
AcDbVertex
100
AcDbPolyFaceMeshVertex
 10
2229.999574997574
 20
2130.0
 30
1793.333333333334
 70
   192
  0
VERTEX
  5
2D9
330
23
100
AcDbEntity
  8
0
100
AcDbVertex
100
AcDbPolyFaceMeshVertex
 10
2230.000394998394
 20
2950.0
 30
1793.333333333334
 70
   192
  0
VERTEX
  5
2DA
330
23
100
AcDbEntity
  8
0
100
AcDbVertex
100
AcDbPolyFaceMeshVertex
 10
1977.000395000395
 20
2950.0
 30
1793.333333333334
 70
   192
  0
VERTEX
  5
2DB
330
23
100
AcDbEntity
  8
0
 62
     0
100
AcDbFaceRecord
 10
0.0
 20
0.0
 30
0.0
 70
   128
 71
    -5
 72
    -2
 73
    -3
 74
    -3
  0
VERTEX
  5
2DC
330
23
100
AcDbEntity
  8
0
 62
     0
100
AcDbFaceRecord
 10
0.0
 20
0.0
 30
0.0
 70
   128
 71
   -10
 72
    -7
 73
    -8
 74
    -8
  0
VERTEX
  5
2DD
330
23
100
AcDbEntity
  8
0
 62
     0
100
AcDbFaceRecord
 10
0.0
 20
0.0
 30
0.0
 70
   128
 71
    -3
 72
    -4
 73
    -5
 74
    -5
  0
VERTEX
  5
2DE
330
23
100
AcDbEntity
  8
0
 62
     0
100
AcDbFaceRecord
 10
0.0
 20
0.0
 30
0.0
 70
   128
 71
    -8
 72
    -9
 73
   -10
 74
   -10
  0
VERTEX
  5
2DF
330
23
100
AcDbEntity
  8
0
 62
     0
100
AcDbFaceRecord
 10
0.0
 20
0.0
 30
0.0
 70
   128
 71
     1
 72
     2
 73
     7
 74
     6
  0
VERTEX
  5
2E0
330
23
100
AcDbEntity
  8
0
 62
     0
100
AcDbFaceRecord
 10
0.0
 20
0.0
 30
0.0
 70
   128
 71
     2
 72
     3
 73
     8
 74
     7
  0
VERTEX
  5
2E1
330
23
100
AcDbEntity
  8
0
 62
     0
100
AcDbFaceRecord
 10
0.0
 20
0.0
 30
0.0
 70
   128
 71
     3
 72
     4
 73
     9
 74
     8
  0
VERTEX
  5
2E2
330
23
100
AcDbEntity
  8
0
 62
     0
100
AcDbFaceRecord
 10
0.0
 20
0.0
 30
0.0
 70
   128
 71
     4
 72
     5
 73
    10
 74
     9
  0
SEQEND
  5
2D0
330
23
100
AcDbEntity
  8
STUFEN
  0
LWPOLYLINE
  5
24
330
4E
100
AcDbEntity
  8
STUFEN
100
AcDbPolyline
 90
        5
 70
     0
 43
0.0
 38
2016.666666666667
 10
2200.000395000395
 20
2950.0
 10
2199.999574999575
 20
2130.0
 10
2452.999574997574
 20
2130.0
 10
2453.000394998394
 20
2950.0
 10
2200.000395000395
 20
2950.0
  0
POLYLINE
  5
25
330
4E
100
AcDbEntity
  8
STUFEN
100
AcDbPolyFaceMesh
 66
     1
 10
0.0
 20
0.0
 30
0.0
 70
    64
 71
    10
 72
     8
  0
VERTEX
  5
2E4
330
25
100
AcDbEntity
  8
0
100
AcDbVertex
100
AcDbPolyFaceMeshVertex
 10
2200.000395000395
 20
2950.0
 30
2016.666666666667
 70
   192
  0
VERTEX
  5
2E5
330
25
100
AcDbEntity
  8
0
100
AcDbVertex
100
AcDbPolyFaceMeshVertex
 10
2199.999574999575
 20
2130.0
 30
2016.666666666667
 70
   192
  0
VERTEX
  5
2E6
330
25
100
AcDbEntity
  8
0
100
AcDbVertex
100
AcDbPolyFaceMeshVertex
 10
2452.999574997574
 20
2130.0
 30
2016.666666666667
 70
   192
  0
VERTEX
  5
2E7
330
25
100
AcDbEntity
  8
0
100
AcDbVertex
100
AcDbPolyFaceMeshVertex
 10
2453.000394998394
 20
2950.0
 30
2016.666666666667
 70
   192
  0
VERTEX
  5
2E8
330
25
100
AcDbEntity
  8
0
100
AcDbVertex
100
AcDbPolyFaceMeshVertex
 10
2200.000395000395
 20
2950.0
 30
2016.666666666667
 70
   192
  0
VERTEX
  5
2E9
330
25
100
AcDbEntity
  8
0
100
AcDbVertex
100
AcDbPolyFaceMeshVertex
 10
2200.000395000395
 20
2950.0
 30
1976.666666666667
 70
   192
  0
VERTEX
  5
2EA
330
25
100
AcDbEntity
  8
0
100
AcDbVertex
100
AcDbPolyFaceMeshVertex
 10
2199.999574999575
 20
2130.0
 30
1976.666666666667
 70
   192
  0
VERTEX
  5
2EB
330
25
100
AcDbEntity
  8
0
100
AcDbVertex
100
AcDbPolyFaceMeshVertex
 10
2452.999574997574
 20
2130.0
 30
1976.666666666667
 70
   192
  0
VERTEX
  5
2EC
330
25
100
AcDbEntity
  8
0
100
AcDbVertex
100
AcDbPolyFaceMeshVertex
 10
2453.000394998394
 20
2950.0
 30
1976.666666666667
 70
   192
  0
VERTEX
  5
2ED
330
25
100
AcDbEntity
  8
0
100
AcDbVertex
100
AcDbPolyFaceMeshVertex
 10
2200.000395000395
 20
2950.0
 30
1976.666666666667
 70
   192
  0
VERTEX
  5
2EE
330
25
100
AcDbEntity
  8
0
 62
     0
100
AcDbFaceRecord
 10
0.0
 20
0.0
 30
0.0
 70
   128
 71
    -5
 72
    -2
 73
    -3
 74
    -3
  0
VERTEX
  5
2EF
330
25
100
AcDbEntity
  8
0
 62
     0
100
AcDbFaceRecord
 10
0.0
 20
0.0
 30
0.0
 70
   128
 71
   -10
 72
    -7
 73
    -8
 74
    -8
  0
VERTEX
  5
2F0
330
25
100
AcDbEntity
  8
0
 62
     0
100
AcDbFaceRecord
 10
0.0
 20
0.0
 30
0.0
 70
   128
 71
    -3
 72
    -4
 73
    -5
 74
    -5
  0
VERTEX
  5
2F1
330
25
100
AcDbEntity
  8
0
 62
     0
100
AcDbFaceRecord
 10
0.0
 20
0.0
 30
0.0
 70
   128
 71
    -8
 72
    -9
 73
   -10
 74
   -10
  0
VERTEX
  5
2F2
330
25
100
AcDbEntity
  8
0
 62
     0
100
AcDbFaceRecord
 10
0.0
 20
0.0
 30
0.0
 70
   128
 71
     1
 72
     2
 73
     7
 74
     6
  0
VERTEX
  5
2F3
330
25
100
AcDbEntity
  8
0
 62
     0
100
AcDbFaceRecord
 10
0.0
 20
0.0
 30
0.0
 70
   128
 71
     2
 72
     3
 73
     8
 74
     7
  0
VERTEX
  5
2F4
330
25
100
AcDbEntity
  8
0
 62
     0
100
AcDbFaceRecord
 10
0.0
 20
0.0
 30
0.0
 70
   128
 71
     3
 72
     4
 73
     9
 74
     8
  0
VERTEX
  5
2F5
330
25
100
AcDbEntity
  8
0
 62
     0
100
AcDbFaceRecord
 10
0.0
 20
0.0
 30
0.0
 70
   128
 71
     4
 72
     5
 73
    10
 74
     9
  0
SEQEND
  5
2E3
330
25
100
AcDbEntity
  8
STUFEN
  0
LWPOLYLINE
  5
26
330
4E
100
AcDbEntity
  8
STUFEN
100
AcDbPolyline
 90
        5
 70
     0
 43
0.0
 38
2200.0
 10
2423.000395000395
 20
2950.0
 10
2422.999574999575
 20
2130.0
 10
2675.999574997574
 20
2130.0
 10
2676.000394998394
 20
2950.0
 10
2423.000395000395
 20
2950.0
  0
POLYLINE
  5
27
330
4E
100
AcDbEntity
  8
STUFEN
100
AcDbPolyFaceMesh
 66
     1
 10
0.0
 20
0.0
 30
0.0
 70
    64
 71
    10
 72
     8
  0
VERTEX
  5
2F7
330
27
100
AcDbEntity
  8
0
100
AcDbVertex
100
AcDbPolyFaceMeshVertex
 10
2423.000395000395
 20
2950.0
 30
2200.0
 70
   192
  0
VERTEX
  5
2F8
330
27
100
AcDbEntity
  8
0
100
AcDbVertex
100
AcDbPolyFaceMeshVertex
 10
2422.999574999575
 20
2130.0
 30
2200.0
 70
   192
  0
VERTEX
  5
2F9
330
27
100
AcDbEntity
  8
0
100
AcDbVertex
100
AcDbPolyFaceMeshVertex
 10
2675.999574997574
 20
2130.0
 30
2200.0
 70
   192
  0
VERTEX
  5
2FA
330
27
100
AcDbEntity
  8
0
100
AcDbVertex
100
AcDbPolyFaceMeshVertex
 10
2676.000394998394
 20
2950.0
 30
2200.0
 70
   192
  0
VERTEX
  5
2FB
330
27
100
AcDbEntity
  8
0
100
AcDbVertex
100
AcDbPolyFaceMeshVertex
 10
2423.000395000395
 20
2950.0
 30
2200.0
 70
   192
  0
VERTEX
  5
2FC
330
27
100
AcDbEntity
  8
0
100
AcDbVertex
100
AcDbPolyFaceMeshVertex
 10
2423.000395000395
 20
2950.0
 30
2160.0
 70
   192
  0
VERTEX
  5
2FD
330
27
100
AcDbEntity
  8
0
100
AcDbVertex
100
AcDbPolyFaceMeshVertex
 10
2422.999574999575
 20
2130.0
 30
2160.0
 70
   192
  0
VERTEX
  5
2FE
330
27
100
AcDbEntity
  8
0
100
AcDbVertex
100
AcDbPolyFaceMeshVertex
 10
2675.999574997574
 20
2130.0
 30
2160.0
 70
   192
  0
VERTEX
  5
2FF
330
27
100
AcDbEntity
  8
0
100
AcDbVertex
100
AcDbPolyFaceMeshVertex
 10
2676.000394998394
 20
2950.0
 30
2160.0
 70
   192
  0
VERTEX
  5
300
330
27
100
AcDbEntity
  8
0
100
AcDbVertex
100
AcDbPolyFaceMeshVertex
 10
2423.000395000395
 20
2950.0
 30
2160.0
 70
   192
  0
VERTEX
  5
301
330
27
100
AcDbEntity
  8
0
 62
     0
100
AcDbFaceRecord
 10
0.0
 20
0.0
 30
0.0
 70
   128
 71
    -5
 72
    -2
 73
    -3
 74
    -3
  0
VERTEX
  5
302
330
27
100
AcDbEntity
  8
0
 62
     0
100
AcDbFaceRecord
 10
0.0
 20
0.0
 30
0.0
 70
   128
 71
   -10
 72
    -7
 73
    -8
 74
    -8
  0
VERTEX
  5
303
330
27
100
AcDbEntity
  8
0
 62
     0
100
AcDbFaceRecord
 10
0.0
 20
0.0
 30
0.0
 70
   128
 71
    -3
 72
    -4
 73
    -5
 74
    -5
  0
VERTEX
  5
304
330
27
100
AcDbEntity
  8
0
 62
     0
100
AcDbFaceRecord
 10
0.0
 20
0.0
 30
0.0
 70
   128
 71
    -8
 72
    -9
 73
   -10
 74
   -10
  0
VERTEX
  5
305
330
27
100
AcDbEntity
  8
0
 62
     0
100
AcDbFaceRecord
 10
0.0
 20
0.0
 30
0.0
 70
   128
 71
     1
 72
     2
 73
     7
 74
     6
  0
VERTEX
  5
306
330
27
100
AcDbEntity
  8
0
 62
     0
100
AcDbFaceRecord
 10
0.0
 20
0.0
 30
0.0
 70
   128
 71
     2
 72
     3
 73
     8
 74
     7
  0
VERTEX
  5
307
330
27
100
AcDbEntity
  8
0
 62
     0
100
AcDbFaceRecord
 10
0.0
 20
0.0
 30
0.0
 70
   128
 71
     3
 72
     4
 73
     9
 74
     8
  0
VERTEX
  5
308
330
27
100
AcDbEntity
  8
0
 62
     0
100
AcDbFaceRecord
 10
0.0
 20
0.0
 30
0.0
 70
   128
 71
     4
 72
     5
 73
    10
 74
     9
  0
SEQEND
  5
2F6
330
27
100
AcDbEntity
  8
STUFEN
  0
LWPOLYLINE
  5
28
330
4E
100
AcDbEntity
  8
STUFEN
100
AcDbPolyline
 90
        5
 70
     0
 43
0.0
 38
2383.333333333334
 10
2646.000395000395
 20
2950.0
 10
2645.999574999575
 20
2130.0
 10
2898.999574997574
 20
2130.0
 10
2899.000394998394
 20
2950.0
 10
2646.000395000395
 20
2950.0
  0
POLYLINE
  5
29
330
4E
100
AcDbEntity
  8
STUFEN
100
AcDbPolyFaceMesh
 66
     1
 10
0.0
 20
0.0
 30
0.0
 70
    64
 71
    10
 72
     8
  0
VERTEX
  5
30A
330
29
100
AcDbEntity
  8
0
100
AcDbVertex
100
AcDbPolyFaceMeshVertex
 10
2646.000395000395
 20
2950.0
 30
2383.333333333334
 70
   192
  0
VERTEX
  5
30B
330
29
100
AcDbEntity
  8
0
100
AcDbVertex
100
AcDbPolyFaceMeshVertex
 10
2645.999574999575
 20
2130.0
 30
2383.333333333334
 70
   192
  0
VERTEX
  5
30C
330
29
100
AcDbEntity
  8
0
100
AcDbVertex
100
AcDbPolyFaceMeshVertex
 10
2898.999574997574
 20
2130.0
 30
2383.333333333334
 70
   192
  0
VERTEX
  5
30D
330
29
100
AcDbEntity
  8
0
100
AcDbVertex
100
AcDbPolyFaceMeshVertex
 10
2899.000394998394
 20
2950.0
 30
2383.333333333334
 70
   192
  0
VERTEX
  5
30E
330
29
100
AcDbEntity
  8
0
100
AcDbVertex
100
AcDbPolyFaceMeshVertex
 10
2646.000395000395
 20
2950.0
 30
2383.333333333334
 70
   192
  0
VERTEX
  5
30F
330
29
100
AcDbEntity
  8
0
100
AcDbVertex
100
AcDbPolyFaceMeshVertex
 10
2646.000395000395
 20
2950.0
 30
2343.333333333334
 70
   192
  0
VERTEX
  5
310
330
29
100
AcDbEntity
  8
0
100
AcDbVertex
100
AcDbPolyFaceMeshVertex
 10
2645.999574999575
 20
2130.0
 30
2343.333333333334
 70
   192
  0
VERTEX
  5
311
330
29
100
AcDbEntity
  8
0
100
AcDbVertex
100
AcDbPolyFaceMeshVertex
 10
2898.999574997574
 20
2130.0
 30
2343.333333333334
 70
   192
  0
VERTEX
  5
312
330
29
100
AcDbEntity
  8
0
100
AcDbVertex
100
AcDbPolyFaceMeshVertex
 10
2899.000394998394
 20
2950.0
 30
2343.333333333334
 70
   192
  0
VERTEX
  5
313
330
29
100
AcDbEntity
  8
0
100
AcDbVertex
100
AcDbPolyFaceMeshVertex
 10
2646.000395000395
 20
2950.0
 30
2343.333333333334
 70
   192
  0
VERTEX
  5
314
330
29
100
AcDbEntity
  8
0
 62
     0
100
AcDbFaceRecord
 10
0.0
 20
0.0
 30
0.0
 70
   128
 71
    -5
 72
    -2
 73
    -3
 74
    -3
  0
VERTEX
  5
315
330
29
100
AcDbEntity
  8
0
 62
     0
100
AcDbFaceRecord
 10
0.0
 20
0.0
 30
0.0
 70
   128
 71
   -10
 72
    -7
 73
    -8
 74
    -8
  0
VERTEX
  5
316
330
29
100
AcDbEntity
  8
0
 62
     0
100
AcDbFaceRecord
 10
0.0
 20
0.0
 30
0.0
 70
   128
 71
    -3
 72
    -4
 73
    -5
 74
    -5
  0
VERTEX
  5
317
330
29
100
AcDbEntity
  8
0
 62
     0
100
AcDbFaceRecord
 10
0.0
 20
0.0
 30
0.0
 70
   128
 71
    -8
 72
    -9
 73
   -10
 74
   -10
  0
VERTEX
  5
318
330
29
100
AcDbEntity
  8
0
 62
     0
100
AcDbFaceRecord
 10
0.0
 20
0.0
 30
0.0
 70
   128
 71
     1
 72
     2
 73
     7
 74
     6
  0
VERTEX
  5
319
330
29
100
AcDbEntity
  8
0
 62
     0
100
AcDbFaceRecord
 10
0.0
 20
0.0
 30
0.0
 70
   128
 71
     2
 72
     3
 73
     8
 74
     7
  0
VERTEX
  5
31A
330
29
100
AcDbEntity
  8
0
 62
     0
100
AcDbFaceRecord
 10
0.0
 20
0.0
 30
0.0
 70
   128
 71
     3
 72
     4
 73
     9
 74
     8
  0
VERTEX
  5
31B
330
29
100
AcDbEntity
  8
0
 62
     0
100
AcDbFaceRecord
 10
0.0
 20
0.0
 30
0.0
 70
   128
 71
     4
 72
     5
 73
    10
 74
     9
  0
SEQEND
  5
309
330
29
100
AcDbEntity
  8
STUFEN
  0
LWPOLYLINE
  5
2A
330
4E
100
AcDbEntity
  8
STUFEN
100
AcDbPolyline
 90
        5
 70
     0
 43
0.0
 38
2566.666666666667
 10
2869.000395000395
 20
2950.0
 10
2868.999574999575
 20
2130.0
 10
3121.999574997574
 20
2130.0
 10
3122.000394998394
 20
2950.0
 10
2869.000395000395
 20
2950.0
  0
POLYLINE
  5
2B
330
4E
100
AcDbEntity
  8
STUFEN
100
AcDbPolyFaceMesh
 66
     1
 10
0.0
 20
0.0
 30
0.0
 70
    64
 71
    10
 72
     8
  0
VERTEX
  5
31D
330
2B
100
AcDbEntity
  8
0
100
AcDbVertex
100
AcDbPolyFaceMeshVertex
 10
2869.000395000395
 20
2950.0
 30
2566.666666666667
 70
   192
  0
VERTEX
  5
31E
330
2B
100
AcDbEntity
  8
0
100
AcDbVertex
100
AcDbPolyFaceMeshVertex
 10
2868.999574999575
 20
2130.0
 30
2566.666666666667
 70
   192
  0
VERTEX
  5
31F
330
2B
100
AcDbEntity
  8
0
100
AcDbVertex
100
AcDbPolyFaceMeshVertex
 10
3121.999574997574
 20
2130.0
 30
2566.666666666667
 70
   192
  0
VERTEX
  5
320
330
2B
100
AcDbEntity
  8
0
100
AcDbVertex
100
AcDbPolyFaceMeshVertex
 10
3122.000394998394
 20
2950.0
 30
2566.666666666667
 70
   192
  0
VERTEX
  5
321
330
2B
100
AcDbEntity
  8
0
100
AcDbVertex
100
AcDbPolyFaceMeshVertex
 10
2869.000395000395
 20
2950.0
 30
2566.666666666667
 70
   192
  0
VERTEX
  5
322
330
2B
100
AcDbEntity
  8
0
100
AcDbVertex
100
AcDbPolyFaceMeshVertex
 10
2869.000395000395
 20
2950.0
 30
2526.666666666667
 70
   192
  0
VERTEX
  5
323
330
2B
100
AcDbEntity
  8
0
100
AcDbVertex
100
AcDbPolyFaceMeshVertex
 10
2868.999574999575
 20
2130.0
 30
2526.666666666667
 70
   192
  0
VERTEX
  5
324
330
2B
100
AcDbEntity
  8
0
100
AcDbVertex
100
AcDbPolyFaceMeshVertex
 10
3121.999574997574
 20
2130.0
 30
2526.666666666667
 70
   192
  0
VERTEX
  5
325
330
2B
100
AcDbEntity
  8
0
100
AcDbVertex
100
AcDbPolyFaceMeshVertex
 10
3122.000394998394
 20
2950.0
 30
2526.666666666667
 70
   192
  0
VERTEX
  5
326
330
2B
100
AcDbEntity
  8
0
100
AcDbVertex
100
AcDbPolyFaceMeshVertex
 10
2869.000395000395
 20
2950.0
 30
2526.666666666667
 70
   192
  0
VERTEX
  5
327
330
2B
100
AcDbEntity
  8
0
 62
     0
100
AcDbFaceRecord
 10
0.0
 20
0.0
 30
0.0
 70
   128
 71
    -5
 72
    -2
 73
    -3
 74
    -3
  0
VERTEX
  5
328
330
2B
100
AcDbEntity
  8
0
 62
     0
100
AcDbFaceRecord
 10
0.0
 20
0.0
 30
0.0
 70
   128
 71
   -10
 72
    -7
 73
    -8
 74
    -8
  0
VERTEX
  5
329
330
2B
100
AcDbEntity
  8
0
 62
     0
100
AcDbFaceRecord
 10
0.0
 20
0.0
 30
0.0
 70
   128
 71
    -3
 72
    -4
 73
    -5
 74
    -5
  0
VERTEX
  5
32A
330
2B
100
AcDbEntity
  8
0
 62
     0
100
AcDbFaceRecord
 10
0.0
 20
0.0
 30
0.0
 70
   128
 71
    -8
 72
    -9
 73
   -10
 74
   -10
  0
VERTEX
  5
32B
330
2B
100
AcDbEntity
  8
0
 62
     0
100
AcDbFaceRecord
 10
0.0
 20
0.0
 30
0.0
 70
   128
 71
     1
 72
     2
 73
     7
 74
     6
  0
VERTEX
  5
32C
330
2B
100
AcDbEntity
  8
0
 62
     0
100
AcDbFaceRecord
 10
0.0
 20
0.0
 30
0.0
 70
   128
 71
     2
 72
     3
 73
     8
 74
     7
  0
VERTEX
  5
32D
330
2B
100
AcDbEntity
  8
0
 62
     0
100
AcDbFaceRecord
 10
0.0
 20
0.0
 30
0.0
 70
   128
 71
     3
 72
     4
 73
     9
 74
     8
  0
VERTEX
  5
32E
330
2B
100
AcDbEntity
  8
0
 62
     0
100
AcDbFaceRecord
 10
0.0
 20
0.0
 30
0.0
 70
   128
 71
     4
 72
     5
 73
    10
 74
     9
  0
SEQEND
  5
31C
330
2B
100
AcDbEntity
  8
STUFEN
  0
LWPOLYLINE
  5
2C
330
4E
100
AcDbEntity
  8
STUFEN
100
AcDbPolyline
 90
        5
 70
     0
 43
0.0
 38
2750.0
 10
3092.000395000395
 20
2950.0
 10
3091.999574999575
 20
2130.0
 10
3315.0
 20
2130.0
 10
3315.0
 20
2950.0
 10
3092.000395000395
 20
2950.0
  0
POLYLINE
  5
2D
330
4E
100
AcDbEntity
  8
STUFEN
100
AcDbPolyFaceMesh
 66
     1
 10
0.0
 20
0.0
 30
0.0
 70
    64
 71
    10
 72
     8
  0
VERTEX
  5
330
330
2D
100
AcDbEntity
  8
0
100
AcDbVertex
100
AcDbPolyFaceMeshVertex
 10
3092.000395000395
 20
2950.0
 30
2750.0
 70
   192
  0
VERTEX
  5
331
330
2D
100
AcDbEntity
  8
0
100
AcDbVertex
100
AcDbPolyFaceMeshVertex
 10
3091.999574999575
 20
2130.0
 30
2750.0
 70
   192
  0
VERTEX
  5
332
330
2D
100
AcDbEntity
  8
0
100
AcDbVertex
100
AcDbPolyFaceMeshVertex
 10
3315.0
 20
2130.0
 30
2750.0
 70
   192
  0
VERTEX
  5
333
330
2D
100
AcDbEntity
  8
0
100
AcDbVertex
100
AcDbPolyFaceMeshVertex
 10
3315.0
 20
2950.0
 30
2750.0
 70
   192
  0
VERTEX
  5
334
330
2D
100
AcDbEntity
  8
0
100
AcDbVertex
100
AcDbPolyFaceMeshVertex
 10
3092.000395000395
 20
2950.0
 30
2750.0
 70
   192
  0
VERTEX
  5
335
330
2D
100
AcDbEntity
  8
0
100
AcDbVertex
100
AcDbPolyFaceMeshVertex
 10
3092.000395000395
 20
2950.0
 30
2710.0
 70
   192
  0
VERTEX
  5
336
330
2D
100
AcDbEntity
  8
0
100
AcDbVertex
100
AcDbPolyFaceMeshVertex
 10
3091.999574999575
 20
2130.0
 30
2710.0
 70
   192
  0
VERTEX
  5
337
330
2D
100
AcDbEntity
  8
0
100
AcDbVertex
100
AcDbPolyFaceMeshVertex
 10
3315.0
 20
2130.0
 30
2710.0
 70
   192
  0
VERTEX
  5
338
330
2D
100
AcDbEntity
  8
0
100
AcDbVertex
100
AcDbPolyFaceMeshVertex
 10
3315.0
 20
2950.0
 30
2710.0
 70
   192
  0
VERTEX
  5
339
330
2D
100
AcDbEntity
  8
0
100
AcDbVertex
100
AcDbPolyFaceMeshVertex
 10
3092.000395000395
 20
2950.0
 30
2710.0
 70
   192
  0
VERTEX
  5
33A
330
2D
100
AcDbEntity
  8
0
 62
     0
100
AcDbFaceRecord
 10
0.0
 20
0.0
 30
0.0
 70
   128
 71
    -5
 72
    -2
 73
    -3
 74
    -3
  0
VERTEX
  5
33B
330
2D
100
AcDbEntity
  8
0
 62
     0
100
AcDbFaceRecord
 10
0.0
 20
0.0
 30
0.0
 70
   128
 71
   -10
 72
    -7
 73
    -8
 74
    -8
  0
VERTEX
  5
33C
330
2D
100
AcDbEntity
  8
0
 62
     0
100
AcDbFaceRecord
 10
0.0
 20
0.0
 30
0.0
 70
   128
 71
    -3
 72
    -4
 73
    -5
 74
    -5
  0
VERTEX
  5
33D
330
2D
100
AcDbEntity
  8
0
 62
     0
100
AcDbFaceRecord
 10
0.0
 20
0.0
 30
0.0
 70
   128
 71
    -8
 72
    -9
 73
   -10
 74
   -10
  0
VERTEX
  5
33E
330
2D
100
AcDbEntity
  8
0
 62
     0
100
AcDbFaceRecord
 10
0.0
 20
0.0
 30
0.0
 70
   128
 71
     1
 72
     2
 73
     7
 74
     6
  0
VERTEX
  5
33F
330
2D
100
AcDbEntity
  8
0
 62
     0
100
AcDbFaceRecord
 10
0.0
 20
0.0
 30
0.0
 70
   128
 71
     2
 72
     3
 73
     8
 74
     7
  0
VERTEX
  5
340
330
2D
100
AcDbEntity
  8
0
 62
     0
100
AcDbFaceRecord
 10
0.0
 20
0.0
 30
0.0
 70
   128
 71
     3
 72
     4
 73
     9
 74
     8
  0
VERTEX
  5
341
330
2D
100
AcDbEntity
  8
0
 62
     0
100
AcDbFaceRecord
 10
0.0
 20
0.0
 30
0.0
 70
   128
 71
     4
 72
     5
 73
    10
 74
     9
  0
SEQEND
  5
32F
330
2D
100
AcDbEntity
  8
STUFEN
  0
3DFACE
  5
2E
330
4E
100
AcDbEntity
  8
BODEN
100
AcDbFace
 10
-1030.0
 20
1130.0
 30
0.0
 11
-1030.0
 21
3950.0
 31
0.0
 12
4315.0
 22
3950.0
 32
0.0
 13
4315.0
 23
1130.0
 33
0.0
  0
ENDSEC
  0
SECTION
  2
OBJECTS
  0
DICTIONARY
  5
3B
330
0
100
AcDbDictionary
  3
ACAD_GROUP
350
3C
  3
ACAD_LAYOUT
350
49
  3
ACAD_MLINESTYLE
350
46
  3
ACAD_PLOTSETTINGS
350
48
  3
ACDBHEADERROUNDTRIPXREC
350
342
  3
VECTORDRAW_OBJECTS
350
5E
  0
DICTIONARY
  5
362
330
58
100
AcDbDictionary
280
     1
  3
ACAD_XREC_ROUNDTRIP
360
363
  0
DICTIONARY
  5
3C
102
{ACAD_REACTORS
330
3B
102
}
330
3B
100
AcDbDictionary
  0
DICTIONARY
  5
49
102
{ACAD_REACTORS
330
3B
102
}
330
3B
100
AcDbDictionary
  0
DICTIONARY
  5
46
102
{ACAD_REACTORS
330
3B
102
}
330
3B
100
AcDbDictionary
  3
STANDARD
350
47
  0
DICTIONARY
  5
48
102
{ACAD_REACTORS
330
3B
102
}
330
3B
100
AcDbDictionary
  0
DICTIONARY
  5
342
102
{ACAD_REACTORS
330
3B
102
}
330
3B
100
AcDbDictionary
  3
CEPSNTYPE
350
34B
  3
DIMSTYLEDATA
350
361
  3
FINGERPRINTGUID
350
34C
  3
HYPERLINKBASE
350
345
  3
INSUNITS
350
34A
  3
LAYOUTDICT
350
347
  3
LWETCUNION
350
349
  3
PLOTSETDICT
350
348
  3
PSVPSCALE
350
34E
  3
PUCSBASE
350
351
  3
PUCSORGBACK
350
357
  3
PUCSORGBOTTOM
350
353
  3
PUCSORGFRONT
350
356
  3
PUCSORGLEFT
350
354
  3
PUCSORGRIGHT
350
355
  3
PUCSORGTOP
350
352
  3
PUCSORTHOREF
350
34F
  3
PUCSORTHOVIEW
350
350
  3
STYLESHEET
350
346
  3
TSTACKALIGN
350
343
  3
TSTACKSIZE
350
344
  3
UCSBASE
350
35A
  3
UCSORGBACK
350
360
  3
UCSORGBOTTOM
350
35C
  3
UCSORGFRONT
350
35F
  3
UCSORGLEFT
350
35D
  3
UCSORGRIGHT
350
35E
  3
UCSORGTOP
350
35B
  3
UCSORTHOREF
350
358
  3
UCSORTHOVIEW
350
359
  3
VERSIONGUID
350
34D
  0
DICTIONARY
  5
5E
102
{ACAD_REACTORS
330
3B
102
}
330
3B
100
AcDbDictionary
  3
SERIALNO
350
5F
  0
XRECORD
  5
363
102
{ACAD_REACTORS
330
362
102
}
330
362
100
AcDbXrecord
102
UCS
 74
     0
 71
     1
 10
0.0
 20
0.0
 30
0.0
 10
1.0
 20
0.0
 30
0.0
 10
0.0
 20
1.0
 30
0.0
146
0.0
 79
     0
102
VIEW
281
     0
  0
MLINESTYLE
  5
47
102
{ACAD_REACTORS
330
46
102
}
330
46
100
AcDbMlineStyle
  2
Standard
 70
     0
  3

 62
   256
 51
90.0
 52
90.0
 71
     2
 49
0.5
 62
   256
  6
BYLAYER
 49
-0.5
 62
   256
  6
BYLAYER
  0
XRECORD
  5
34B
102
{ACAD_REACTORS
330
342
102
}
330
342
100
AcDbXrecord
 90
        0
  0
XRECORD
  5
361
102
{ACAD_REACTORS
330
342
102
}
330
342
100
AcDbXrecord
1000
DSTYLE
1002
{
1070
    41
 40
0.2
1070
   342
340
6
1070
   177
 70
   256
1070
   178
 70
   256
1070
    44
 40
0.2
1070
    42
 40
0.05
1070
    73
 70
     0
1070
   174
 70
     1
1070
   172
 70
     1
1070
    74
 70
     0
1070
   340
340
40
1070
   140
 40
0.2
1070
   288
 70
     1
1002
}
  0
XRECORD
  5
34C
102
{ACAD_REACTORS
330
342
102
}
330
342
100
AcDbXrecord
  1
{FAEB1C30-E019-11D5-929B-00C0DF256EC4}
  0
XRECORD
  5
345
102
{ACAD_REACTORS
330
342
102
}
330
342
100
AcDbXrecord
  1

  0
XRECORD
  5
34A
102
{ACAD_REACTORS
330
342
102
}
330
342
100
AcDbXrecord
 90
        1
  0
XRECORD
  5
347
102
{ACAD_REACTORS
330
342
102
}
330
342
100
AcDbXrecord
340
49
  0
XRECORD
  5
349
102
{ACAD_REACTORS
330
342
102
}
330
342
100
AcDbXrecord
 90
     2048
  0
XRECORD
  5
348
102
{ACAD_REACTORS
330
342
102
}
330
342
100
AcDbXrecord
340
48
  0
XRECORD
  5
34E
102
{ACAD_REACTORS
330
342
102
}
330
342
100
AcDbXrecord
 40
0.0
  0
XRECORD
  5
351
102
{ACAD_REACTORS
330
342
102
}
330
342
100
AcDbXrecord
340
0
  0
XRECORD
  5
357
102
{ACAD_REACTORS
330
342
102
}
330
342
100
AcDbXrecord
 10
0.0
 20
0.0
 30
0.0
  0
XRECORD
  5
353
102
{ACAD_REACTORS
330
342
102
}
330
342
100
AcDbXrecord
 10
0.0
 20
0.0
 30
0.0
  0
XRECORD
  5
356
102
{ACAD_REACTORS
330
342
102
}
330
342
100
AcDbXrecord
 10
0.0
 20
0.0
 30
0.0
  0
XRECORD
  5
354
102
{ACAD_REACTORS
330
342
102
}
330
342
100
AcDbXrecord
 10
0.0
 20
0.0
 30
0.0
  0
XRECORD
  5
355
102
{ACAD_REACTORS
330
342
102
}
330
342
100
AcDbXrecord
 10
0.0
 20
0.0
 30
0.0
  0
XRECORD
  5
352
102
{ACAD_REACTORS
330
342
102
}
330
342
100
AcDbXrecord
 10
0.0
 20
0.0
 30
0.0
  0
XRECORD
  5
34F
102
{ACAD_REACTORS
330
342
102
}
330
342
100
AcDbXrecord
340
0
  0
XRECORD
  5
350
102
{ACAD_REACTORS
330
342
102
}
330
342
100
AcDbXrecord
 70
     0
  0
XRECORD
  5
346
102
{ACAD_REACTORS
330
342
102
}
330
342
100
AcDbXrecord
  1

  0
XRECORD
  5
343
102
{ACAD_REACTORS
330
342
102
}
330
342
100
AcDbXrecord
 90
        1
  0
XRECORD
  5
344
102
{ACAD_REACTORS
330
342
102
}
330
342
100
AcDbXrecord
 90
       70
  0
XRECORD
  5
35A
102
{ACAD_REACTORS
330
342
102
}
330
342
100
AcDbXrecord
340
0
  0
XRECORD
  5
360
102
{ACAD_REACTORS
330
342
102
}
330
342
100
AcDbXrecord
 10
0.0
 20
0.0
 30
0.0
  0
XRECORD
  5
35C
102
{ACAD_REACTORS
330
342
102
}
330
342
100
AcDbXrecord
 10
0.0
 20
0.0
 30
0.0
  0
XRECORD
  5
35F
102
{ACAD_REACTORS
330
342
102
}
330
342
100
AcDbXrecord
 10
0.0
 20
0.0
 30
0.0
  0
XRECORD
  5
35D
102
{ACAD_REACTORS
330
342
102
}
330
342
100
AcDbXrecord
 10
0.0
 20
0.0
 30
0.0
  0
XRECORD
  5
35E
102
{ACAD_REACTORS
330
342
102
}
330
342
100
AcDbXrecord
 10
0.0
 20
0.0
 30
0.0
  0
XRECORD
  5
35B
102
{ACAD_REACTORS
330
342
102
}
330
342
100
AcDbXrecord
 10
0.0
 20
0.0
 30
0.0
  0
XRECORD
  5
358
102
{ACAD_REACTORS
330
342
102
}
330
342
100
AcDbXrecord
340
0
  0
XRECORD
  5
359
102
{ACAD_REACTORS
330
342
102
}
330
342
100
AcDbXrecord
 70
     0
  0
XRECORD
  5
34D
102
{ACAD_REACTORS
330
342
102
}
330
342
100
AcDbXrecord
  1
{FAEB1C32-E019-11D5-929B-00C0DF256EC4}
  0
XRECORD
  5
5F
102
{ACAD_REACTORS
330
5E
102
}
330
5E
100
AcDbXrecord
1000
ncPhVYpfZ3E8RDPZRHsEPk8jD
1070
     4
1070
     6
  0
ENDSEC
  0
EOF
